  0
SECTION
  2
HEADER
  9
$ACADVER
  1
AC1015
  9
$ACADMAINTVER
 70
    20
  9
$DWGCODEPAGE
  3
ANSI_1252
  9
$INSBASE
 10
0.0
 20
0.0
 30
0.0
  9
$EXTMIN
 10
-45.00738782019547
 20
-21.00349573451011
 30
-0.0000000349181948
  9
$EXTMAX
 10
45.00783092912456
 20
71.00086120422874
 30
0.0000000814935746
  9
$LIMMIN
 10
0.0
 20
0.0
  9
$LIMMAX
 10
12.0
 20
9.0
  9
$ORTHOMODE
 70
     0
  9
$REGENMODE
 70
     1
  9
$FILLMODE
 70
     1
  9
$QTEXTMODE
 70
     0
  9
$MIRRTEXT
 70
     0
  9
$LTSCALE
 40
1.0
  9
$ATTMODE
 70
     1
  9
$TEXTSIZE
 40
0.2
  9
$TRACEWID
 40
0.05
  9
$TEXTSTYLE
  7
Standard
  9
$CLAYER
  8
0
  9
$CELTYPE
  6
ByLayer
  9
$CECOLOR
 62
   256
  9
$CELTSCALE
 40
1.0
  9
$DISPSILH
 70
     0
  9
$DIMSCALE
 40
1.0
  9
$DIMASZ
 40
0.18
  9
$DIMEXO
 40
0.0625
  9
$DIMDLI
 40
0.38
  9
$DIMRND
 40
0.0
  9
$DIMDLE
 40
0.0
  9
$DIMEXE
 40
0.18
  9
$DIMTP
 40
0.0
  9
$DIMTM
 40
0.0
  9
$DIMTXT
 40
0.18
  9
$DIMCEN
 40
0.09
  9
$DIMTSZ
 40
0.0
  9
$DIMTOL
 70
     0
  9
$DIMLIM
 70
     0
  9
$DIMTIH
 70
     1
  9
$DIMTOH
 70
     1
  9
$DIMSE1
 70
     0
  9
$DIMSE2
 70
     0
  9
$DIMTAD
 70
     0
  9
$DIMZIN
 70
     0
  9
$DIMBLK
  1

  9
$DIMASO
 70
     1
  9
$DIMSHO
 70
     1
  9
$DIMPOST
  1

  9
$DIMAPOST
  1

  9
$DIMALT
 70
     0
  9
$DIMALTD
 70
     2
  9
$DIMALTF
 40
25.4
  9
$DIMLFAC
 40
1.0
  9
$DIMTOFL
 70
     0
  9
$DIMTVP
 40
0.0
  9
$DIMTIX
 70
     0
  9
$DIMSOXD
 70
     0
  9
$DIMSAH
 70
     0
  9
$DIMBLK1
  1

  9
$DIMBLK2
  1

  9
$DIMSTYLE
  2
Standard
  9
$DIMCLRD
 70
     0
  9
$DIMCLRE
 70
     0
  9
$DIMCLRT
 70
     0
  9
$DIMTFAC
 40
1.0
  9
$DIMGAP
 40
0.09
  9
$DIMJUST
 70
     0
  9
$DIMSD1
 70
     0
  9
$DIMSD2
 70
     0
  9
$DIMTOLJ
 70
     1
  9
$DIMTZIN
 70
     0
  9
$DIMALTZ
 70
     0
  9
$DIMALTTZ
 70
     0
  9
$DIMUPT
 70
     0
  9
$DIMDEC
 70
     4
  9
$DIMTDEC
 70
     4
  9
$DIMALTU
 70
     2
  9
$DIMALTTD
 70
     2
  9
$DIMTXSTY
  7
Standard
  9
$DIMAUNIT
 70
     0
  9
$DIMADEC
 70
     0
  9
$DIMALTRND
 40
0.0
  9
$DIMAZIN
 70
     0
  9
$DIMDSEP
 70
    46
  9
$DIMATFIT
 70
     3
  9
$DIMFRAC
 70
     0
  9
$DIMLDRBLK
  1

  9
$DIMLUNIT
 70
     2
  9
$DIMLWD
 70
    -2
  9
$DIMLWE
 70
    -2
  9
$DIMTMOVE
 70
     0
  9
$LUNITS
 70
     2
  9
$LUPREC
 70
     4
  9
$SKETCHINC
 40
0.1
  9
$FILLETRAD
 40
0.0
  9
$AUNITS
 70
     0
  9
$AUPREC
 70
     0
  9
$MENU
  1
.
  9
$ELEVATION
 40
0.0
  9
$PELEVATION
 40
0.0
  9
$THICKNESS
 40
0.0
  9
$LIMCHECK
 70
     0
  9
$CHAMFERA
 40
0.0
  9
$CHAMFERB
 40
0.0
  9
$CHAMFERC
 40
0.0
  9
$CHAMFERD
 40
0.0
  9
$SKPOLY
 70
     0
  9
$TDCREATE
 40
2455156.544251412
  9
$TDUCREATE
 40
2455156.085918079
  9
$TDUPDATE
 40
2457738.487821320
  9
$TDUUPDATE
 40
2457738.029487986
  9
$TDINDWG
 40
0.0401354051
  9
$TDUSRTIMER
 40
0.0401354167
  9
$USRTIMER
 70
     1
  9
$ANGBASE
 50
0.0
  9
$ANGDIR
 70
     0
  9
$PDMODE
 70
     0
  9
$PDSIZE
 40
0.0
  9
$PLINEWID
 40
0.0
  9
$SPLFRAME
 70
     0
  9
$SPLINETYPE
 70
     6
  9
$SPLINESEGS
 70
     8
  9
$HANDSEED
  5
F92
  9
$SURFTAB1
 70
     6
  9
$SURFTAB2
 70
     6
  9
$SURFTYPE
 70
     6
  9
$SURFU
 70
     6
  9
$SURFV
 70
     6
  9
$UCSBASE
  2

  9
$UCSNAME
  2

  9
$UCSORG
 10
0.0
 20
0.0
 30
0.0
  9
$UCSXDIR
 10
1.0
 20
0.0
 30
0.0
  9
$UCSYDIR
 10
0.0
 20
1.0
 30
0.0
  9
$UCSORTHOREF
  2

  9
$UCSORTHOVIEW
 70
     0
  9
$UCSORGTOP
 10
0.0
 20
0.0
 30
0.0
  9
$UCSORGBOTTOM
 10
0.0
 20
0.0
 30
0.0
  9
$UCSORGLEFT
 10
0.0
 20
0.0
 30
0.0
  9
$UCSORGRIGHT
 10
0.0
 20
0.0
 30
0.0
  9
$UCSORGFRONT
 10
0.0
 20
0.0
 30
0.0
  9
$UCSORGBACK
 10
0.0
 20
0.0
 30
0.0
  9
$PUCSBASE
  2

  9
$PUCSNAME
  2

  9
$PUCSORG
 10
0.0
 20
0.0
 30
0.0
  9
$PUCSXDIR
 10
1.0
 20
0.0
 30
0.0
  9
$PUCSYDIR
 10
0.0
 20
1.0
 30
0.0
  9
$PUCSORTHOREF
  2

  9
$PUCSORTHOVIEW
 70
     0
  9
$PUCSORGTOP
 10
0.0
 20
0.0
 30
0.0
  9
$PUCSORGBOTTOM
 10
0.0
 20
0.0
 30
0.0
  9
$PUCSORGLEFT
 10
0.0
 20
0.0
 30
0.0
  9
$PUCSORGRIGHT
 10
0.0
 20
0.0
 30
0.0
  9
$PUCSORGFRONT
 10
0.0
 20
0.0
 30
0.0
  9
$PUCSORGBACK
 10
0.0
 20
0.0
 30
0.0
  9
$USERI1
 70
     0
  9
$USERI2
 70
     0
  9
$USERI3
 70
     0
  9
$USERI4
 70
     0
  9
$USERI5
 70
     0
  9
$USERR1
 40
0.0
  9
$USERR2
 40
0.0
  9
$USERR3
 40
0.0
  9
$USERR4
 40
0.0
  9
$USERR5
 40
0.0
  9
$WORLDVIEW
 70
     1
  9
$SHADEDGE
 70
     3
  9
$SHADEDIF
 70
    70
  9
$TILEMODE
 70
     1
  9
$MAXACTVP
 70
    64
  9
$PINSBASE
 10
0.0
 20
0.0
 30
0.0
  9
$PLIMCHECK
 70
     0
  9
$PEXTMIN
 10
0.0
 20
0.0
 30
0.0
  9
$PEXTMAX
 10
0.0
 20
0.0
 30
0.0
  9
$PLIMMIN
 10
0.0
 20
0.0
  9
$PLIMMAX
 10
12.0
 20
9.0
  9
$UNITMODE
 70
     0
  9
$VISRETAIN
 70
     1
  9
$PLINEGEN
 70
     0
  9
$PSLTSCALE
 70
     1
  9
$TREEDEPTH
 70
  3020
  9
$CMLSTYLE
  2
Standard
  9
$CMLJUST
 70
     0
  9
$CMLSCALE
 40
1.0
  9
$PROXYGRAPHICS
 70
     1
  9
$MEASUREMENT
 70
     0
  9
$CELWEIGHT
370
    -1
  9
$ENDCAPS
280
     0
  9
$JOINSTYLE
280
     0
  9
$LWDISPLAY
290
     0
  9
$INSUNITS
 70
     1
  9
$HYPERLINKBASE
  1

  9
$STYLESHEET
  1
MONOCHROME.CTB
  9
$XEDIT
290
     1
  9
$CEPSNTYPE
380
     0
  9
$PSTYLEMODE
290
     1
  9
$FINGERPRINTGUID
  2
{7C7665F7-DA27-4199-88C5-AF4EA6AA79B4}
  9
$VERSIONGUID
  2
{C2941BE5-B740-47A9-A341-8957BC3A4844}
  9
$EXTNAMES
290
     1
  9
$PSVPSCALE
 40
0.0
  9
$OLESTARTUP
290
     0
  0
ENDSEC
  0
SECTION
  2
CLASSES
  0
CLASS
  1
ACDBDICTIONARYWDFLT
  2
AcDbDictionaryWithDefault
  3
ObjectDBX Classes
 90
        0
280
     0
281
     0
  0
CLASS
  1
DICTIONARYVAR
  2
AcDbDictionaryVar
  3
ObjectDBX Classes
 90
        0
280
     0
281
     0
  0
CLASS
  1
TABLESTYLE
  2
AcDbTableStyle
  3
ObjectDBX Classes
 90
     4095
280
     0
281
     0
  0
CLASS
  1
MATERIAL
  2
AcDbMaterial
  3
ObjectDBX Classes
 90
     1153
280
     0
281
     0
  0
CLASS
  1
VISUALSTYLE
  2
AcDbVisualStyle
  3
ObjectDBX Classes
 90
     4095
280
     0
281
     0
  0
CLASS
  1
SCALE
  2
AcDbScale
  3
ObjectDBX Classes
 90
     1153
280
     0
281
     0
  0
CLASS
  1
MLEADERSTYLE
  2
AcDbMLeaderStyle
  3
ACDB_MLEADERSTYLE_CLASS
 90
     4095
280
     0
281
     0
  0
CLASS
  1
CELLSTYLEMAP
  2
AcDbCellStyleMap
  3
ObjectDBX Classes
 90
     1152
280
     0
281
     0
  0
CLASS
  1
EXACXREFPANELOBJECT
  2
ExAcXREFPanelObject
  3
EXAC_ESW
 90
     1025
280
     0
281
     0
  0
CLASS
  1
NPOCOLLECTION
  2
AcDbImpNonPersistentObjectsCollection
  3
ObjectDBX Classes
 90
     1153
280
     0
281
     0
  0
CLASS
  1
LAYER_INDEX
  2
AcDbLayerIndex
  3
ObjectDBX Classes
 90
    32768
280
     0
281
     0
  0
CLASS
  1
SPATIAL_INDEX
  2
AcDbSpatialIndex
  3
ObjectDBX Classes
 90
    32768
280
     0
281
     0
  0
CLASS
  1
IDBUFFER
  2
AcDbIdBuffer
  3
ObjectDBX Classes
 90
    32768
280
     0
281
     0
  0
CLASS
  1
SORTENTSTABLE
  2
AcDbSortentsTable
  3
ObjectDBX Classes
 90
        0
280
     0
281
     0
  0
CLASS
  1
ACDBPLACEHOLDER
  2
AcDbPlaceHolder
  3
ObjectDBX Classes
 90
        0
280
     0
281
     0
  0
CLASS
  1
LAYOUT
  2
AcDbLayout
  3
ObjectDBX Classes
 90
        0
280
     0
281
     0
  0
CLASS
  1
ACDBSECTIONVIEWSTYLE
  2
AcDbSectionViewStyle
  3
ObjectDBX Classes
 90
     1025
280
     0
281
     0
  0
CLASS
  1
ACDBDETAILVIEWSTYLE
  2
AcDbDetailViewStyle
  3
ObjectDBX Classes
 90
     1025
280
     0
281
     0
  0
CLASS
  1
ACAD_EVALUATION_GRAPH
  2
AcDbEvalGraph
  3
ObjectDBX Classes
 90
    33921
280
     0
281
     0
  0
CLASS
  1
ACAECUSTOBJ
  2
AcAeEditorObj
  3
AcAeEditorObj
 90
    33792
280
     0
281
     0
  0
CLASS
  1
ACDB_DYNAMICBLOCKPURGEPREVENTER_VERSION
  2
AcDbDynamicBlockPurgePreventer
  3
ObjectDBX Classes
 90
    33921
280
     0
281
     0
  0
ENDSEC
  0
SECTION
  2
TABLES
  0
TABLE
  2
VPORT
  5
8
102
{ACAD_XDICTIONARY
360
36B
102
}
330
0
100
AcDbSymbolTable
 70
     1
  0
VPORT
  5
94
330
8
100
AcDbSymbolTableRecord
100
AcDbViewportTableRecord
  2
*Active
 70
     0
 10
0.0
 20
0.0
 11
1.0
 21
1.0
 12
0.0002215544645523
 22
24.99868273485931
 13
0.0
 23
0.0
 14
0.5
 24
0.5
 15
0.5
 25
0.5
 16
0.0
 26
0.0
 36
1.0
 17
0.0
 27
0.0
 37
0.0
 40
92.49029544369696
 41
1.982378854625551
 42
50.0
 43
0.0
 44
0.0
 50
0.0
 51
0.0
 71
     0
 72
  1000
 73
     1
 74
     3
 75
     0
 76
     0
 77
     0
 78
     0
281
     0
 65
     1
110
0.0
120
0.0
130
0.0
111
1.0
121
0.0
131
0.0
112
0.0
122
1.0
132
0.0
 79
     0
146
0.0
1001
ACAD_NAV_VCDISPLAY
1070
     3
  0
ENDTAB
  0
TABLE
  2
LTYPE
  5
5
330
0
100
AcDbSymbolTable
 70
     4
  0
LTYPE
  5
14
330
5
100
AcDbSymbolTableRecord
100
AcDbLinetypeTableRecord
  2
ByBlock
 70
     0
  3

 72
    65
 73
     0
 40
0.0
  0
LTYPE
  5
15
330
5
100
AcDbSymbolTableRecord
100
AcDbLinetypeTableRecord
  2
ByLayer
 70
     0
  3

 72
    65
 73
     0
 40
0.0
  0
LTYPE
  5
16
330
5
100
AcDbSymbolTableRecord
100
AcDbLinetypeTableRecord
  2
Continuous
 70
     0
  3
Solid line
 72
    65
 73
     0
 40
0.0
  0
ENDTAB
  0
TABLE
  2
LAYER
  5
2
102
{ACAD_XDICTIONARY
360
179
102
}
330
0
100
AcDbSymbolTable
 70
     8
  0
LAYER
  5
10
102
{ACAD_XDICTIONARY
360
E6
102
}
330
2
100
AcDbSymbolTableRecord
100
AcDbLayerTableRecord
  2
0
 70
     0
 62
     7
  6
Continuous
370
    -3
390
F
  0
LAYER
  5
2D0
330
2
100
AcDbSymbolTableRecord
100
AcDbLayerTableRecord
  2
RONDO
 70
     0
 62
    20
  6
Continuous
370
    -3
390
F
1001
AcAecLayerStandard
1000

1000

1001
AcCmTransparency
1071
        0
  0
ENDTAB
  0
TABLE
  2
STYLE
  5
3
330
0
100
AcDbSymbolTable
 70
     6
  0
STYLE
  5
11
330
3
100
AcDbSymbolTableRecord
100
AcDbTextStyleTableRecord
  2
Standard
 70
     0
 40
0.0
 41
1.0
 50
0.0
 71
     0
 42
0.2
  3
arial.ttf
  4

1001
ACAD
1000
Arial
1071
       34
  0
ENDTAB
  0
TABLE
  2
VIEW
  5
6
330
0
100
AcDbSymbolTable
 70
     0
  0
ENDTAB
  0
TABLE
  2
UCS
  5
7
330
0
100
AcDbSymbolTable
 70
     0
  0
ENDTAB
  0
TABLE
  2
APPID
  5
9
330
0
100
AcDbSymbolTable
 70
    15
  0
APPID
  5
12
330
9
100
AcDbSymbolTableRecord
100
AcDbRegAppTableRecord
  2
ACAD
 70
     0
  0
APPID
  5
DD
330
9
100
AcDbSymbolTableRecord
100
AcDbRegAppTableRecord
  2
AcadAnnoPO
 70
     0
  0
APPID
  5
DE
330
9
100
AcDbSymbolTableRecord
100
AcDbRegAppTableRecord
  2
AcadAnnotative
 70
     0
  0
APPID
  5
DF
330
9
100
AcDbSymbolTableRecord
100
AcDbRegAppTableRecord
  2
ACAD_DSTYLE_DIMJAG
 70
     0
  0
APPID
  5
E0
330
9
100
AcDbSymbolTableRecord
100
AcDbRegAppTableRecord
  2
ACAD_DSTYLE_DIMTALN
 70
     0
  0
APPID
  5
107
330
9
100
AcDbSymbolTableRecord
100
AcDbRegAppTableRecord
  2
ACAD_MLEADERVER
 70
     0
  0
APPID
  5
175
330
9
100
AcDbSymbolTableRecord
100
AcDbRegAppTableRecord
  2
ACAD_PSEXT
 70
     0
  0
APPID
  5
176
330
9
100
AcDbSymbolTableRecord
100
AcDbRegAppTableRecord
  2
ACAD_DSTYLE_DIMJOGGED_JOGANGLE_SYMBOL
 70
     0
  0
APPID
  5
256
330
9
100
AcDbSymbolTableRecord
100
AcDbRegAppTableRecord
  2
AcAecLayerStandard
 70
     0
  0
APPID
  5
257
330
9
100
AcDbSymbolTableRecord
100
AcDbRegAppTableRecord
  2
AcCmTransparency
 70
     0
  0
APPID
  5
263
330
9
100
AcDbSymbolTableRecord
100
AcDbRegAppTableRecord
  2
ACAD_EXEMPT_FROM_CAD_STANDARDS
 70
     0
  0
APPID
  5
3C8
330
9
100
AcDbSymbolTableRecord
100
AcDbRegAppTableRecord
  2
ACAD_NAV_VCDISPLAY
 70
     0
  0
APPID
  5
463
330
9
100
AcDbSymbolTableRecord
100
AcDbRegAppTableRecord
  2
ACAUTHENVIRON
 70
     0
  0
APPID
  5
4CB
330
9
100
AcDbSymbolTableRecord
100
AcDbRegAppTableRecord
  2
AcDbDynamicBlockTrueName
 70
     0
  0
APPID
  5
4CC
330
9
100
AcDbSymbolTableRecord
100
AcDbRegAppTableRecord
  2
AcDbDynamicBlockGUID
 70
     0
  0
ENDTAB
  0
TABLE
  2
DIMSTYLE
  5
A
330
0
100
AcDbSymbolTable
 70
     5
100
AcDbDimStyleTable
 71
     1
340
27
  0
DIMSTYLE
105
27
330
A
100
AcDbSymbolTableRecord
100
AcDbDimStyleTableRecord
  2
Standard
 70
     0
340
11
  0
ENDTAB
  0
TABLE
  2
BLOCK_RECORD
  5
1
330
0
100
AcDbSymbolTable
 70
    10
  0
BLOCK_RECORD
  5
1F
102
{ACAD_XDICTIONARY
360
15D
102
}
330
1
100
AcDbSymbolTableRecord
100
AcDbBlockTableRecord
  2
*Model_Space
340
22
  0
BLOCK_RECORD
  5
58
330
1
100
AcDbSymbolTableRecord
100
AcDbBlockTableRecord
  2
*Paper_Space
340
59
  0
BLOCK_RECORD
  5
5D
330
1
100
AcDbSymbolTableRecord
100
AcDbBlockTableRecord
  2
*Paper_Space0
340
5E
  0
BLOCK_RECORD
  5
D3C
330
1
100
AcDbSymbolTableRecord
100
AcDbBlockTableRecord
  2
RONDO_311D
340
0
310
280000002000000020000000010020000000000000100000010000000100000000000000000000004C4226FF4C4226FF4C4226FF4C4226FF4C4226FF4C4226FF4C4226FF4C4226FF4C4226FF4C4226FF4C4226FF4C4226FF4C4226FF4C4226FF4C4226FF4C4226FF4C4226FF4C4226FF4C4226FF4C4226FF4C4226FF4C4226
310
FF4C4226FF4C4226FF4C4226FF4C4226FF4C4226FF4C4226FF4C4226FF4C4226FF4C4226FF4C4226FF4C4226FF4C4226FF003FFFFF003FFFFF003FFFFF4C4226FF4C4226FF4C4226FF4C4226FF4C4226FF4C4226FF4C4226FF4C4226FF4C4226FF4C4226FF4C4226FF4C4226FF4C4226FF4C4226FF4C4226FF4C4226FF4C42
310
26FF4C4226FF4C4226FF4C4226FF4C4226FF4C4226FF003FFFFF003FFFFF003FFFFF4C4226FF4C4226FF4C4226FF4C4226FF003FFFFF4C4226FF003FFFFF003FFFFF4C4226FF4C4226FF4C4226FF4C4226FF4C4226FF4C4226FF4C4226FF4C4226FF4C4226FF4C4226FF4C4226FF4C4226FF4C4226FF4C4226FF4C4226FF4C
310
4226FF4C4226FF4C4226FF4C4226FF4C4226FF003FFFFF003FFFFF4C4226FF003FFFFF4C4226FF4C4226FF4C4226FF4C4226FF003FFFFF4C4226FF4C4226FF4C4226FF003FFFFF4C4226FF4C4226FF4C4226FF4C4226FF4C4226FF4C4226FF4C4226FF4C4226FF4C4226FF4C4226FF4C4226FF4C4226FF4C4226FF4C4226FF
310
4C4226FF4C4226FF4C4226FF4C4226FF003FFFFF4C4226FF4C4226FF4C4226FF003FFFFF4C4226FF4C4226FF4C4226FF4C4226FF003FFFFF4C4226FF4C4226FF4C4226FF003FFFFF4C4226FF4C4226FF4C4226FF4C4226FF4C4226FF4C4226FF4C4226FF4C4226FF4C4226FF4C4226FF4C4226FF4C4226FF4C4226FF4C4226
310
FF4C4226FF4C4226FF4C4226FF4C4226FF003FFFFF4C4226FF4C4226FF4C4226FF003FFFFF4C4226FF4C4226FF4C4226FF4C4226FF003FFFFF003FFFFF003FFFFF003FFFFF003FFFFF003FFFFF4C4226FF4C4226FF4C4226FF4C4226FF4C4226FF4C4226FF4C4226FF4C4226FF4C4226FF4C4226FF4C4226FF4C4226FF4C42
310
26FF4C4226FF4C4226FF4C4226FF003FFFFF003FFFFF003FFFFF003FFFFF003FFFFF003FFFFF4C4226FF4C4226FF4C4226FF4C4226FF003FFFFF003FFFFF003FFFFF4C4226FF4C4226FF4C4226FF003FFFFF4C4226FF4C4226FF4C4226FF4C4226FF4C4226FF4C4226FF4C4226FF4C4226FF4C4226FF4C4226FF4C4226FF4C
310
4226FF4C4226FF4C4226FF4C4226FF003FFFFF4C4226FF4C4226FF003FFFFF003FFFFF003FFFFF4C4226FF4C4226FF4C4226FF4C4226FF003FFFFF003FFFFF003FFFFF003FFFFF003FFFFF003FFFFF003FFFFF4C4226FF4C4226FF4C4226FF4C4226FF4C4226FF4C4226FF4C4226FF4C4226FF4C4226FF4C4226FF4C4226FF
310
4C4226FF4C4226FF4C4226FF003FFFFF003FFFFF003FFFFF003FFFFF003FFFFF003FFFFF003FFFFF4C4226FF4C4226FF4C4226FF4C4226FF003FFFFF003FFFFF003FFFFF003FFFFF003FFFFF003FFFFF003FFFFF003FFFFF003FFFFF003FFFFF003FFFFF003FFFFF003FFFFF003FFFFF003FFFFF003FFFFF003FFFFF003FFF
310
FF003FFFFF003FFFFF003FFFFF003FFFFF003FFFFF003FFFFF003FFFFF003FFFFF003FFFFF003FFFFF4C4226FF4C4226FF4C4226FF4C4226FF003FFFFF4C4226FF4C4226FF4C4226FF4C4226FF4C4226FF4C4226FF4C4226FF4C4226FF4C4226FF4C4226FF4C4226FF4C4226FF4C4226FF4C4226FF4C4226FF4C4226FF4C42
310
26FF4C4226FF4C4226FF4C4226FF4C4226FF4C4226FF4C4226FF4C4226FF4C4226FF4C4226FF003FFFFF4C4226FF4C4226FF4C4226FF4C4226FF003FFFFF4C4226FF4C4226FF4C4226FF4C4226FF4C4226FF4C4226FF4C4226FF4C4226FF4C4226FF4C4226FF4C4226FF4C4226FF4C4226FF4C4226FF4C4226FF4C4226FF4C
310
4226FF4C4226FF4C4226FF4C4226FF4C4226FF4C4226FF4C4226FF4C4226FF4C4226FF4C4226FF003FFFFF4C4226FF4C4226FF4C4226FF4C4226FF003FFFFF4C4226FF4C4226FF4C4226FF4C4226FF4C4226FF4C4226FF4C4226FF4C4226FF4C4226FF4C4226FF4C4226FF4C4226FF4C4226FF4C4226FF4C4226FF4C4226FF
310
4C4226FF4C4226FF4C4226FF4C4226FF4C4226FF4C4226FF4C4226FF4C4226FF4C4226FF4C4226FF003FFFFF4C4226FF4C4226FF4C4226FF4C4226FF003FFFFF4C4226FF4C4226FF4C4226FF003FFFFF4C4226FF4C4226FF4C4226FF4C4226FF4C4226FF4C4226FF4C4226FF4C4226FF003FFFFF003FFFFF4C4226FF4C4226
310
FF4C4226FF4C4226FF4C4226FF4C4226FF4C4226FF003FFFFF003FFFFF4C4226FF4C4226FF4C4226FF003FFFFF4C4226FF4C4226FF4C4226FF4C4226FF003FFFFF4C4226FF4C4226FF003FFFFF4C4226FF003FFFFF4C4226FF4C4226FF4C4226FF4C4226FF4C4226FF4C4226FF4C4226FF003FFFFF003FFFFF4C4226FF4C42
310
26FF4C4226FF4C4226FF4C4226FF4C4226FF4C4226FF003FFFFF4C4226FF003FFFFF4C4226FF4C4226FF003FFFFF4C4226FF4C4226FF4C4226FF4C4226FF4C4226FF003FFFFF4C4226FF003FFFFF003FFFFF003FFFFF4C4226FF4C4226FF4C4226FF4C4226FF4C4226FF4C4226FF4C4226FF003FFFFF003FFFFF4C4226FF4C
310
4226FF4C4226FF4C4226FF4C4226FF4C4226FF4C4226FF003FFFFF003FFFFF003FFFFF4C4226FF003FFFFF4C4226FF4C4226FF4C4226FF4C4226FF4C4226FF4C4226FF003FFFFF4C4226FF4C4226FF4C4226FF4C4226FF4C4226FF4C4226FF4C4226FF4C4226FF4C4226FF4C4226FF003FFFFF4C4226FF4C4226FF4C4226FF
310
4C4226FF4C4226FF4C4226FF4C4226FF4C4226FF4C4226FF4C4226FF4C4226FF4C4226FF4C4226FF003FFFFF4C4226FF4C4226FF4C4226FF4C4226FF4C4226FF4C4226FF4C4226FF003FFFFF4C4226FF4C4226FF4C4226FF4C4226FF4C4226FF4C4226FF4C4226FF4C4226FF003FFFFF003FFFFF003FFFFF003FFFFF003FFF
310
FF003FFFFF4C4226FF4C4226FF4C4226FF4C4226FF4C4226FF4C4226FF4C4226FF4C4226FF4C4226FF003FFFFF4C4226FF4C4226FF4C4226FF4C4226FF4C4226FF4C4226FF4C4226FF003FFFFF4C4226FF4C4226FF4C4226FF4C4226FF003FFFFF003FFFFF4C4226FF4C4226FF003FFFFF003FFFFF003FFFFF003FFFFF003F
310
FFFF003FFFFF4C4226FF4C4226FF003FFFFF003FFFFF4C4226FF4C4226FF4C4226FF4C4226FF003FFFFF4C4226FF4C4226FF4C4226FF4C4226FF4C4226FF4C4226FF4C4226FF4C4226FF003FFFFF4C4226FF4C4226FF4C4226FF4C4226FF003FFFFF003FFFFF4C4226FF4C4226FF003FFFFF003FFFFF003FFFFF003FFFFF00
310
3FFFFF003FFFFF4C4226FF4C4226FF003FFFFF003FFFFF4C4226FF4C4226FF4C4226FF4C4226FF003FFFFF4C4226FF4C4226FF4C4226FF4C4226FF4C4226FF4C4226FF4C4226FF4C4226FF4C4226FF003FFFFF4C4226FF4C4226FF4C4226FF4C4226FF4C4226FF4C4226FF4C4226FF4C4226FF4C4226FF003FFFFF003FFFFF
310
4C4226FF4C4226FF4C4226FF4C4226FF4C4226FF4C4226FF4C4226FF4C4226FF4C4226FF003FFFFF4C4226FF4C4226FF4C4226FF4C4226FF4C4226FF4C4226FF4C4226FF4C4226FF4C4226FF4C4226FF003FFFFF4C4226FF4C4226FF4C4226FF4C4226FF4C4226FF4C4226FF4C4226FF4C4226FF4C4226FF003FFFFF003FFF
310
FF4C4226FF4C4226FF4C4226FF4C4226FF4C4226FF4C4226FF4C4226FF4C4226FF4C4226FF003FFFFF4C4226FF4C4226FF4C4226FF4C4226FF4C4226FF4C4226FF4C4226FF4C4226FF4C4226FF4C4226FF003FFFFF4C4226FF4C4226FF4C4226FF4C4226FF4C4226FF4C4226FF4C4226FF4C4226FF4C4226FF003FFFFF003F
310
FFFF4C4226FF4C4226FF4C4226FF4C4226FF4C4226FF4C4226FF4C4226FF4C4226FF4C4226FF003FFFFF4C4226FF4C4226FF4C4226FF4C4226FF4C4226FF4C4226FF4C4226FF4C4226FF4C4226FF4C4226FF4C4226FF003FFFFF4C4226FF4C4226FF4C4226FF4C4226FF4C4226FF4C4226FF4C4226FF4C4226FF003FFFFF00
310
3FFFFF4C4226FF4C4226FF4C4226FF4C4226FF4C4226FF4C4226FF4C4226FF4C4226FF003FFFFF4C4226FF4C4226FF4C4226FF4C4226FF4C4226FF4C4226FF4C4226FF4C4226FF4C4226FF4C4226FF4C4226FF4C4226FF003FFFFF4C4226FF4C4226FF4C4226FF4C4226FF4C4226FF4C4226FF4C4226FF4C4226FF003FFFFF
310
003FFFFF4C4226FF4C4226FF4C4226FF4C4226FF4C4226FF4C4226FF4C4226FF4C4226FF003FFFFF4C4226FF4C4226FF4C4226FF4C4226FF4C4226FF4C4226FF4C4226FF4C4226FF4C4226FF4C4226FF4C4226FF4C4226FF4C4226FF003FFFFF4C4226FF4C4226FF4C4226FF4C4226FF4C4226FF4C4226FF4C4226FF003FFF
310
FF003FFFFF4C4226FF4C4226FF4C4226FF4C4226FF4C4226FF4C4226FF4C4226FF4C4226FF003FFFFF4C4226FF4C4226FF4C4226FF4C4226FF4C4226FF4C4226FF4C4226FF4C4226FF4C4226FF4C4226FF4C4226FF4C4226FF4C4226FF003FFFFF4C4226FF4C4226FF4C4226FF4C4226FF4C4226FF4C4226FF4C4226FF003F
310
FFFF003FFFFF4C4226FF4C4226FF4C4226FF4C4226FF4C4226FF4C4226FF4C4226FF003FFFFF4C4226FF4C4226FF4C4226FF4C4226FF4C4226FF4C4226FF4C4226FF4C4226FF4C4226FF4C4226FF4C4226FF4C4226FF4C4226FF4C4226FF003FFFFF4C4226FF4C4226FF4C4226FF4C4226FF4C4226FF4C4226FF4C4226FF00
310
3FFFFF003FFFFF4C4226FF4C4226FF4C4226FF4C4226FF4C4226FF4C4226FF4C4226FF003FFFFF4C4226FF4C4226FF4C4226FF4C4226FF4C4226FF4C4226FF4C4226FF4C4226FF4C4226FF4C4226FF4C4226FF4C4226FF4C4226FF4C4226FF4C4226FF003FFFFF4C4226FF4C4226FF4C4226FF4C4226FF4C4226FF4C4226FF
310
003FFFFF003FFFFF4C4226FF4C4226FF4C4226FF4C4226FF4C4226FF4C4226FF003FFFFF4C4226FF4C4226FF4C4226FF4C4226FF4C4226FF4C4226FF4C4226FF4C4226FF4C4226FF4C4226FF4C4226FF4C4226FF4C4226FF4C4226FF4C4226FF4C4226FF003FFFFF4C4226FF4C4226FF4C4226FF4C4226FF4C4226FF4C4226
310
FF4C4226FF4C4226FF4C4226FF4C4226FF4C4226FF4C4226FF4C4226FF4C4226FF003FFFFF4C4226FF4C4226FF4C4226FF4C4226FF4C4226FF4C4226FF4C4226FF4C4226FF4C4226FF4C4226FF4C4226FF4C4226FF4C4226FF4C4226FF4C4226FF4C4226FF4C4226FF003FFFFF003FFFFF4C4226FF4C4226FF4C4226FF4C42
310
26FF4C4226FF4C4226FF4C4226FF4C4226FF4C4226FF4C4226FF003FFFFF003FFFFF4C4226FF4C4226FF4C4226FF4C4226FF4C4226FF4C4226FF4C4226FF4C4226FF4C4226FF4C4226FF4C4226FF4C4226FF4C4226FF4C4226FF4C4226FF4C4226FF4C4226FF4C4226FF4C4226FF4C4226FF003FFFFF003FFFFF003FFFFF00
310
3FFFFF003FFFFF003FFFFF003FFFFF003FFFFF003FFFFF003FFFFF4C4226FF4C4226FF4C4226FF4C4226FF4C4226FF4C4226FF4C4226FF4C4226FF4C4226FF4C4226FF4C4226FF4C4226FF4C4226FF4C4226FF4C4226FF4C4226FF4C4226FF4C4226FF4C4226FF4C4226FF4C4226FF4C4226FF4C4226FF4C4226FF4C4226FF
310
4C4226FF4C4226FF4C4226FF4C4226FF4C4226FF4C4226FF4C4226FF4C4226FF4C4226FF4C4226FF4C4226FF4C4226FF4C4226FF4C4226FF4C4226FF4C4226FF4C4226FF4C4226FF
102
{BLKREFS
331
F01
102
}
1001
ACAD
1000
DesignCenter Data
1002
{
1070
     1
1070
     1
1002
}
  0
ENDTAB
  0
ENDSEC
  0
SECTION
  2
BLOCKS
  0
BLOCK
  5
20
330
1F
100
AcDbEntity
  8
0
100
AcDbBlockBegin
  2
*Model_Space
 70
     0
 10
0.0
 20
0.0
 30
0.0
  3
*Model_Space
  1

  0
ENDBLK
  5
21
330
1F
100
AcDbEntity
  8
0
100
AcDbBlockEnd
  0
BLOCK
  5
5A
330
58
100
AcDbEntity
 67
     1
  8
0
100
AcDbBlockBegin
  2
*Paper_Space
 70
     0
 10
0.0
 20
0.0
 30
0.0
  3
*Paper_Space
  1

  0
ENDBLK
  5
5B
330
58
100
AcDbEntity
 67
     1
  8
0
100
AcDbBlockEnd
  0
BLOCK
  5
5F
330
5D
100
AcDbEntity
 67
     1
  8
0
100
AcDbBlockBegin
  2
*Paper_Space0
 70
     0
 10
0.0
 20
0.0
 30
0.0
  3
*Paper_Space0
  1

  0
ENDBLK
  5
60
330
5D
100
AcDbEntity
 67
     1
  8
0
100
AcDbBlockEnd
  0
BLOCK
  5
D3D
330
D3C
100
AcDbEntity
  8
0
100
AcDbBlockBegin
  2
RONDO_311D
 70
     0
 10
0.0
 20
0.0
 30
0.0
  3
RONDO_311D
  1

  0
SPLINE
  5
D3F
330
D3C
100
AcDbEntity
  8
RONDO
100
AcDbSpline
210
0.0
220
0.0
230
1.0
 70
     8
 71
     2
 72
     7
 73
     4
 74
     0
 42
0.000000001
 43
0.0000000001
 40
0.0
 40
0.0
 40
0.0
 40
1.0
 40
2.0
 40
2.0
 40
2.0
 10
42.59270674610448
 20
-8.620000076834088
 30
0.0
 10
42.59270674610448
 20
-8.311248038633465
 30
0.0
 10
42.54408437788387
 20
-7.856628895771123
 30
0.0
 10
42.48330641760813
 20
-7.703468435876317
 30
0.0
  0
SPLINE
  5
D40
330
D3C
100
AcDbEntity
  8
RONDO
100
AcDbSpline
210
0.0
220
0.0
230
1.0
 70
     8
 71
     2
 72
     7
 73
     4
 74
     0
 42
0.000000001
 43
0.0000000001
 40
0.0
 40
0.0
 40
0.0
 40
1.0
 40
2.0
 40
2.0
 40
2.0
 10
42.48330641760813
 20
-7.703468435876317
 30
0.0
 10
42.42252845733244
 20
-7.55030797598151
 30
0.0
 10
42.21102115557298
 20
-7.392285279264655
 30
0.0
 10
42.04327398521198
 20
-7.392285279264655
 30
0.0
  0
SPLINE
  5
D41
330
D3C
100
AcDbEntity
  8
RONDO
100
AcDbSpline
210
0.0
220
0.0
230
1.0
 70
     8
 71
     2
 72
     7
 73
     4
 74
     0
 42
0.000000001
 43
0.0000000001
 40
0.0
 40
0.0
 40
0.0
 40
1.0
 40
2.0
 40
2.0
 40
2.0
 10
42.04327398521198
 20
-7.392285279264655
 30
0.0
 10
41.87552681485098
 20
-7.392285279264655
 30
0.0
 10
41.65915727626949
 20
-7.55030797598151
 30
0.0
 10
41.59594819758271
 20
-7.708330672698366
 30
0.0
  0
SPLINE
  5
D42
330
D3C
100
AcDbEntity
  8
RONDO
100
AcDbSpline
210
0.0
220
0.0
230
1.0
 70
     8
 71
     2
 72
     7
 73
     4
 74
     0
 42
0.000000001
 43
0.0000000001
 40
0.0
 40
0.0
 40
0.0
 40
1.0
 40
2.0
 40
2.0
 40
2.0
 10
41.59594819758271
 20
-7.708330672698366
 30
0.0
 10
41.53517023730702
 20
-7.861491132593172
 30
0.0
 10
41.4914101059085
 20
-8.328265867510665
 30
0.0
 10
41.4914101059085
 20
-8.622431195245113
 30
0.0
  0
SPLINE
  5
D43
330
D3C
100
AcDbEntity
  8
RONDO
100
AcDbSpline
210
0.0
220
0.0
230
1.0
 70
     8
 71
     2
 72
     7
 73
     4
 74
     0
 42
0.000000001
 43
0.0000000001
 40
0.0
 40
0.0
 40
0.0
 40
1.0
 40
2.0
 40
2.0
 40
2.0
 10
41.4914101059085
 20
-8.622431195245113
 30
0.0
 10
41.4914101059085
 20
-8.938476588678838
 30
0.0
 10
41.53030800048495
 20
-9.361491192197817
 30
0.0
 10
41.59351707917173
 20
-9.526807244147761
 30
0.0
  0
SPLINE
  5
D44
330
D3C
100
AcDbEntity
  8
RONDO
100
AcDbSpline
210
0.0
220
0.0
230
1.0
 70
     8
 71
     2
 72
     7
 73
     4
 74
     0
 42
0.000000001
 43
0.0000000001
 40
0.0
 40
0.0
 40
0.0
 40
1.0
 40
2.0
 40
2.0
 40
2.0
 10
41.59351707917173
 20
-9.526807244147761
 30
0.0
 10
41.65186392103644
 20
-9.682398822453592
 30
0.0
 10
41.86823345961798
 20
-9.85014599281456
 30
0.0
 10
42.04327398521198
 20
-9.85014599281456
 30
0.0
  0
SPLINE
  5
D45
330
D3C
100
AcDbEntity
  8
RONDO
100
AcDbSpline
210
0.0
220
0.0
230
1.0
 70
     8
 71
     2
 72
     7
 73
     4
 74
     0
 42
0.000000001
 43
0.0000000001
 40
0.0
 40
0.0
 40
0.0
 40
1.0
 40
2.0
 40
2.0
 40
2.0
 10
42.04327398521198
 20
-9.85014599281456
 30
0.0
 10
42.20859003716188
 20
-9.85014599281456
 30
0.0
 10
42.42495957574348
 20
-9.692123296097705
 30
0.0
 10
42.48573753601923
 20
-9.534100599380835
 30
0.0
  0
SPLINE
  5
D46
330
D3C
100
AcDbEntity
  8
RONDO
100
AcDbSpline
210
0.0
220
0.0
230
1.0
 70
     8
 71
     2
 72
     7
 73
     4
 74
     0
 42
0.000000001
 43
0.0000000001
 40
0.0
 40
0.0
 40
0.0
 40
1.0
 40
2.0
 40
2.0
 40
2.0
 10
42.48573753601923
 20
-9.534100599380835
 30
0.0
 10
42.54408437788387
 20
-9.385802376308106
 30
0.0
 10
42.59270674610448
 20
-8.928752115034725
 30
0.0
 10
42.59270674610448
 20
-8.620000076834088
 30
0.0
  0
SPLINE
  5
D47
330
D3C
100
AcDbEntity
  8
RONDO
100
AcDbSpline
210
0.0
220
0.0
230
1.0
 70
     8
 71
     2
 72
     7
 73
     4
 74
     0
 42
0.000000001
 43
0.0000000001
 40
0.0
 40
0.0
 40
0.0
 40
1.0
 40
2.0
 40
2.0
 40
2.0
 10
42.04327398521198
 20
-7.059222056953743
 30
0.0
 10
42.53679102265081
 20
-7.059222056953743
 30
0.0
 10
43.00113463915724
 20
-7.837179948482884
 30
0.0
 10
43.00113463915724
 20
-8.620000076834088
 30
0.0
  0
SPLINE
  5
D48
330
D3C
100
AcDbEntity
  8
RONDO
100
AcDbSpline
210
0.0
220
0.0
230
1.0
 70
     8
 71
     2
 72
     7
 73
     4
 74
     0
 42
0.000000001
 43
0.0000000001
 40
0.0
 40
0.0
 40
0.0
 40
1.0
 40
2.0
 40
2.0
 40
2.0
 10
41.08298221285574
 20
-8.622431195245113
 30
0.0
 10
41.08298221285574
 20
-7.81043764596157
 30
0.0
 10
41.55218806618418
 20
-7.059222056953743
 30
0.0
 10
42.04327398521198
 20
-7.059222056953743
 30
0.0
  0
SPLINE
  5
D49
330
D3C
100
AcDbEntity
  8
RONDO
100
AcDbSpline
210
0.0
220
0.0
230
1.0
 70
     8
 71
     2
 72
     7
 73
     4
 74
     0
 42
0.000000001
 43
0.0000000001
 40
0.0
 40
0.0
 40
0.0
 40
1.0
 40
2.0
 40
2.0
 40
2.0
 10
42.04327398521198
 20
-10.18320921512549
 30
0.0
 10
41.54732582936216
 20
-10.18320921512549
 30
0.0
 10
41.08298221285574
 20
-9.412544678829419
 30
0.0
 10
41.08298221285574
 20
-8.622431195245113
 30
0.0
  0
SPLINE
  5
D4A
330
D3C
100
AcDbEntity
  8
RONDO
100
AcDbSpline
210
0.0
220
0.0
230
1.0
 70
     8
 71
     2
 72
     7
 73
     4
 74
     0
 42
0.000000001
 43
0.0000000001
 40
0.0
 40
0.0
 40
0.0
 40
1.0
 40
2.0
 40
2.0
 40
2.0
 10
43.00113463915724
 20
-8.620000076834088
 30
0.0
 10
43.00113463915724
 20
-9.427131389295581
 30
0.0
 10
42.53192878582874
 20
-10.18320921512549
 30
0.0
 10
42.04327398521198
 20
-10.18320921512549
 30
0.0
  0
SPLINE
  5
D4B
330
D3C
100
AcDbEntity
  8
RONDO
100
AcDbSpline
210
0.0
220
0.0
230
1.0
 70
     8
 71
     2
 72
     7
 73
     4
 74
     0
 42
0.000000001
 43
0.0000000001
 40
0.0
 40
0.0
 40
0.0
 40
1.0
 40
2.0
 40
2.0
 40
2.0
 10
37.80583459478916
 20
-7.496823370938884
 30
0.0
 10
37.7304699240473
 20
-7.445769884307267
 30
0.0
 10
37.54570492480909
 20
-7.404440871319792
 30
0.0
 10
37.44116683313482
 20
-7.404440871319792
 30
0.0
  0
SPLINE
  5
D4C
330
D3C
100
AcDbEntity
  8
RONDO
100
AcDbSpline
210
0.0
220
0.0
230
1.0
 70
     8
 71
     2
 72
     7
 73
     4
 74
     0
 42
0.000000001
 43
0.0000000001
 40
0.0
 40
0.0
 40
0.0
 40
1.0
 40
2.0
 40
2.0
 40
2.0
 10
37.963857291506
 20
-7.822593238016708
 30
0.0
 10
37.963857291506
 20
-7.708330672698366
 30
0.0
 10
37.87633702870901
 20
-7.545445739159447
 30
0.0
 10
37.80583459478916
 20
-7.496823370938884
 30
0.0
  0
SPLINE
  5
D4D
330
D3C
100
AcDbEntity
  8
RONDO
100
AcDbSpline
210
0.0
220
0.0
230
1.0
 70
     8
 71
     2
 72
     7
 73
     4
 74
     0
 42
0.000000001
 43
0.0000000001
 40
0.0
 40
0.0
 40
0.0
 40
1.0
 40
2.0
 40
2.0
 40
2.0
 10
37.35364657033782
 20
-8.325834749099627
 30
0.0
 10
37.62350071396199
 20
-8.325834749099627
 30
0.0
 10
37.963857291506
 20
-8.068136197530606
 30
0.0
 10
37.963857291506
 20
-7.822593238016708
 30
0.0
  0
LINE
  5
D4E
330
D3C
100
AcDbEntity
  8
RONDO
100
AcDbLine
 10
37.21993505773125
 20
-8.325834749099627
 30
0.0
 11
37.35364657033782
 21
-8.325834749099627
 31
0.0
  0
LINE
  5
D4F
330
D3C
100
AcDbEntity
  8
RONDO
100
AcDbLine
 10
37.21993505773125
 20
-8.658897971410553
 30
0.0
 11
37.21993505773125
 21
-8.325834749099627
 31
0.0
  0
LINE
  5
D50
330
D3C
100
AcDbEntity
  8
RONDO
100
AcDbLine
 10
37.39011334650328
 20
-8.658897971410553
 30
0.0
 11
37.21993505773125
 21
-8.658897971410553
 31
0.0
  0
SPLINE
  5
D51
330
D3C
100
AcDbEntity
  8
RONDO
100
AcDbSpline
210
0.0
220
0.0
230
1.0
 70
     8
 71
     2
 72
     7
 73
     4
 74
     0
 42
0.000000001
 43
0.0000000001
 40
0.0
 40
0.0
 40
0.0
 40
1.0
 40
2.0
 40
2.0
 40
2.0
 10
37.84230137095458
 20
-8.765867181495806
 30
0.0
 10
37.75721222656861
 20
-8.705089221220092
 30
0.0
 10
37.52625597752083
 20
-8.658897971410553
 30
0.0
 10
37.39011334650328
 20
-8.658897971410553
 30
0.0
  0
SPLINE
  5
D52
330
D3C
100
AcDbEntity
  8
RONDO
100
AcDbSpline
210
0.0
220
0.0
230
1.0
 70
     8
 71
     2
 72
     7
 73
     4
 74
     0
 42
0.000000001
 43
0.0000000001
 40
0.0
 40
0.0
 40
0.0
 40
1.0
 40
2.0
 40
2.0
 40
2.0
 10
38.02220413337065
 20
-9.201037377069937
 30
0.0
 10
38.02220413337065
 20
-9.038152443531004
 30
0.0
 10
37.92739051534065
 20
-8.826645141771521
 30
0.0
 10
37.84230137095458
 20
-8.765867181495806
 30
0.0
  0
SPLINE
  5
D53
330
D3C
100
AcDbEntity
  8
RONDO
100
AcDbSpline
210
0.0
220
0.0
230
1.0
 70
     8
 71
     2
 72
     7
 73
     4
 74
     0
 42
0.000000001
 43
0.0000000001
 40
0.0
 40
0.0
 40
0.0
 40
1.0
 40
2.0
 40
2.0
 40
2.0
 10
37.85688808142075
 20
-9.667812111987416
 30
0.0
 10
37.93711498898469
 20
-9.577860730779363
 30
0.0
 10
38.02220413337065
 20
-9.363922310608842
 30
0.0
 10
38.02220413337065
 20
-9.201037377069937
 30
0.0
  0
SPLINE
  5
D54
330
D3C
100
AcDbEntity
  8
RONDO
100
AcDbSpline
210
0.0
220
0.0
230
1.0
 70
     8
 71
     2
 72
     7
 73
     4
 74
     0
 42
0.000000001
 43
0.0000000001
 40
0.0
 40
0.0
 40
0.0
 40
1.0
 40
2.0
 40
2.0
 40
2.0
 10
37.40226893855842
 20
-9.835559282348384
 30
0.0
 10
37.52625597752083
 20
-9.835559282348384
 30
0.0
 10
37.77423005544577
 20
-9.757763493195483
 30
0.0
 10
37.85688808142075
 20
-9.667812111987416
 30
0.0
  0
SPLINE
  5
D55
330
D3C
100
AcDbEntity
  8
RONDO
100
AcDbSpline
210
0.0
220
0.0
230
1.0
 70
     8
 71
     2
 72
     7
 73
     4
 74
     0
 42
0.000000001
 43
0.0000000001
 40
0.0
 40
0.0
 40
0.0
 40
1.0
 40
2.0
 40
2.0
 40
2.0
 10
36.63646663908443
 20
-9.5729984939573
 30
0.0
 10
36.76288479645788
 20
-9.665380993576391
 30
0.0
 10
37.1907616367989
 20
-9.835559282348384
 30
0.0
 10
37.40226893855842
 20
-9.835559282348384
 30
0.0
  0
LINE
  5
D56
330
D3C
100
AcDbEntity
  8
RONDO
100
AcDbLine
 10
36.60729321815202
 20
-9.5729984939573
 30
0.0
 11
36.63646663908443
 21
-9.5729984939573
 31
0.0
  0
LINE
  5
D57
330
D3C
100
AcDbEntity
  8
RONDO
100
AcDbLine
 10
36.60729321815202
 20
-9.998444215887317
 30
0.0
 11
36.60729321815202
 21
-9.5729984939573
 31
0.0
  0
SPLINE
  5
D58
330
D3C
100
AcDbEntity
  8
RONDO
100
AcDbSpline
210
0.0
220
0.0
230
1.0
 70
     8
 71
     2
 72
     7
 73
     4
 74
     0
 42
0.000000001
 43
0.0000000001
 40
0.0
 40
0.0
 40
0.0
 40
1.0
 40
2.0
 40
2.0
 40
2.0
 10
37.4265801226687
 20
-10.18320921512549
 30
0.0
 10
37.20048611044305
 20
-10.18320921512549
 30
0.0
 10
36.75802255963581
 20
-10.07380888662919
 30
0.0
 10
36.60729321815202
 20
-9.998444215887317
 30
0.0
  0
SPLINE
  5
D59
330
D3C
100
AcDbEntity
  8
RONDO
100
AcDbSpline
210
0.0
220
0.0
230
1.0
 70
     8
 71
     2
 72
     7
 73
     4
 74
     0
 42
0.000000001
 43
0.0000000001
 40
0.0
 40
0.0
 40
0.0
 40
1.0
 40
2.0
 40
2.0
 40
2.0
 10
38.16564011962143
 20
-9.906061716268226
 30
0.0
 10
38.03435972542585
 20
-10.04220434728582
 30
0.0
 10
37.6623986085385
 20
-10.18320921512549
 30
0.0
 10
37.4265801226687
 20
-10.18320921512549
 30
0.0
  0
SPLINE
  5
D5A
330
D3C
100
AcDbEntity
  8
RONDO
100
AcDbSpline
210
0.0
220
0.0
230
1.0
 70
     8
 71
     2
 72
     7
 73
     4
 74
     0
 42
0.000000001
 43
0.0000000001
 40
0.0
 40
0.0
 40
0.0
 40
1.0
 40
2.0
 40
2.0
 40
2.0
 10
38.43063202642347
 20
-9.230210798002261
 30
0.0
 10
38.43063202642347
 20
-9.431993626117645
 30
0.0
 10
38.29205827699488
 20
-9.774781322072669
 30
0.0
 10
38.16564011962143
 20
-9.906061716268226
 30
0.0
  0
SPLINE
  5
D5B
330
D3C
100
AcDbEntity
  8
RONDO
100
AcDbSpline
210
0.0
220
0.0
230
1.0
 70
     8
 71
     2
 72
     7
 73
     4
 74
     0
 42
0.000000001
 43
0.0000000001
 40
0.0
 40
0.0
 40
0.0
 40
1.0
 40
2.0
 40
2.0
 40
2.0
 10
38.22155584307504
 20
-8.675915800287754
 30
0.0
 10
38.31393834269412
 20
-8.761004944673757
 30
0.0
 10
38.43063202642347
 20
-9.033290206708954
 30
0.0
 10
38.43063202642347
 20
-9.230210798002261
 30
0.0
  0
SPLINE
  5
D5C
330
D3C
100
AcDbEntity
  8
RONDO
100
AcDbSpline
210
0.0
220
0.0
230
1.0
 70
     8
 71
     2
 72
     7
 73
     4
 74
     0
 42
0.000000001
 43
0.0000000001
 40
0.0
 40
0.0
 40
0.0
 40
1.0
 40
2.0
 40
2.0
 40
2.0
 10
37.8179901868443
 20
-8.481426327405458
 30
0.0
 10
37.91280380487441
 20
-8.500875274693697
 30
0.0
 10
38.12917334345596
 20
-8.588395537490725
 30
0.0
 10
38.22155584307504
 20
-8.675915800287754
 30
0.0
  0
LINE
  5
D5D
330
D3C
100
AcDbEntity
  8
RONDO
100
AcDbLine
 10
37.8179901868443
 20
-8.452252906473106
 30
0.0
 11
37.8179901868443
 21
-8.481426327405458
 31
0.0
  0
SPLINE
  5
D5E
330
D3C
100
AcDbEntity
  8
RONDO
100
AcDbSpline
210
0.0
220
0.0
230
1.0
 70
     8
 71
     2
 72
     7
 73
     4
 74
     0
 42
0.000000001
 43
0.0000000001
 40
0.0
 40
0.0
 40
0.0
 40
1.0
 40
2.0
 40
2.0
 40
2.0
 10
38.37228518455876
 20
-7.781264225029232
 30
0.0
 10
38.37228518455876
 20
-8.029238302954141
 30
0.0
 10
38.04651531748098
 20
-8.403630538252556
 30
0.0
 10
37.8179901868443
 20
-8.452252906473106
 30
0.0
  0
SPLINE
  5
D5F
330
D3C
100
AcDbEntity
  8
RONDO
100
AcDbSpline
210
0.0
220
0.0
230
1.0
 70
     8
 71
     2
 72
     7
 73
     4
 74
     0
 42
0.000000001
 43
0.0000000001
 40
0.0
 40
0.0
 40
0.0
 40
1.0
 40
2.0
 40
2.0
 40
2.0
 10
38.10486215934563
 20
-7.226969227314711
 30
0.0
 10
38.23614255354121
 20
-7.321782845344827
 30
0.0
 10
38.37228518455876
 20
-7.596499225791049
 30
0.0
 10
38.37228518455876
 20
-7.781264225029232
 30
0.0
  0
SPLINE
  5
D60
330
D3C
100
AcDbEntity
  8
RONDO
100
AcDbSpline
210
0.0
220
0.0
230
1.0
 70
     8
 71
     2
 72
     7
 73
     4
 74
     0
 42
0.000000001
 43
0.0000000001
 40
0.0
 40
0.0
 40
0.0
 40
1.0
 40
2.0
 40
2.0
 40
2.0
 10
37.47277137247826
 20
-7.056790938542704
 30
0.0
 10
37.67698531900462
 20
-7.056790938542704
 30
0.0
 10
37.98087512038322
 20
-7.139448964517669
 30
0.0
 10
38.10486215934563
 20
-7.226969227314711
 30
0.0
  0
SPLINE
  5
D61
330
D3C
100
AcDbEntity
  8
RONDO
100
AcDbSpline
210
0.0
220
0.0
230
1.0
 70
     8
 71
     2
 72
     7
 73
     4
 74
     0
 42
0.000000001
 43
0.0000000001
 40
0.0
 40
0.0
 40
0.0
 40
1.0
 40
2.0
 40
2.0
 40
2.0
 10
36.689951244127
 20
-7.241555937780873
 30
0.0
 10
36.82123163832259
 20
-7.171053503861045
 30
0.0
 10
37.27098854436284
 20
-7.056790938542704
 30
0.0
 10
37.47277137247826
 20
-7.056790938542704
 30
0.0
  0
LINE
  5
D62
330
D3C
100
AcDbEntity
  8
RONDO
100
AcDbLine
 10
36.689951244127
 20
-7.667001659710891
 30
0.0
 11
36.689951244127
 21
-7.241555937780873
 31
0.0
  0
LINE
  5
D63
330
D3C
100
AcDbEntity
  8
RONDO
100
AcDbLine
 10
36.71426242823733
 20
-7.667001659710891
 30
0.0
 11
36.689951244127
 21
-7.667001659710891
 31
0.0
  0
SPLINE
  5
D64
330
D3C
100
AcDbEntity
  8
RONDO
100
AcDbSpline
210
0.0
220
0.0
230
1.0
 70
     8
 71
     2
 72
     7
 73
     4
 74
     0
 42
0.000000001
 43
0.0000000001
 40
0.0
 40
0.0
 40
0.0
 40
1.0
 40
2.0
 40
2.0
 40
2.0
 10
37.01085887438282
 20
-7.499254489349908
 30
0.0
 10
36.91361413794167
 20
-7.540583502337383
 30
0.0
 10
36.770178151691
 20
-7.628103765134426
 30
0.0
 10
36.71426242823733
 20
-7.667001659710891
 30
0.0
  0
SPLINE
  5
D65
330
D3C
100
AcDbEntity
  8
RONDO
100
AcDbSpline
210
0.0
220
0.0
230
1.0
 70
     8
 71
     2
 72
     7
 73
     4
 74
     0
 42
0.000000001
 43
0.0000000001
 40
0.0
 40
0.0
 40
0.0
 40
1.0
 40
2.0
 40
2.0
 40
2.0
 10
37.44116683313482
 20
-7.404440871319792
 30
0.0
 10
37.33176650463858
 20
-7.404440871319792
 30
0.0
 10
37.11539696605703
 20
-7.457925476362433
 30
0.0
 10
37.01085887438282
 20
-7.499254489349908
 30
0.0
  0
SPLINE
  5
D66
330
D3C
100
AcDbEntity
  8
RONDO
100
AcDbSpline
210
0.0
220
0.0
230
1.0
 70
     8
 71
     2
 72
     7
 73
     4
 74
     0
 42
0.000000001
 43
0.0000000001
 40
0.0
 40
0.0
 40
0.0
 40
1.0
 40
2.0
 40
2.0
 40
2.0
 10
35.35583459478912
 20
-0.3768233709388795
 30
0.0
 10
35.28046992404725
 20
-0.3257698843072774
 30
0.0
 10
35.0957049248091
 20
-0.2844408713198021
 30
0.0
 10
34.99116683313488
 20
-0.2844408713198021
 30
0.0
  0
SPLINE
  5
D67
330
D3C
100
AcDbEntity
  8
RONDO
100
AcDbSpline
210
0.0
220
0.0
230
1.0
 70
     8
 71
     2
 72
     7
 73
     4
 74
     0
 42
0.000000001
 43
0.0000000001
 40
0.0
 40
0.0
 40
0.0
 40
1.0
 40
2.0
 40
2.0
 40
2.0
 10
35.51385729150601
 20
-0.7025932380167177
 30
0.0
 10
35.51385729150601
 20
-0.5883306726983762
 30
0.0
 10
35.42633702870901
 20
-0.4254457391594571
 30
0.0
 10
35.35583459478912
 20
-0.3768233709388795
 30
0.0
  0
SPLINE
  5
D68
330
D3C
100
AcDbEntity
  8
RONDO
100
AcDbSpline
210
0.0
220
0.0
230
1.0
 70
     8
 71
     2
 72
     7
 73
     4
 74
     0
 42
0.000000001
 43
0.0000000001
 40
0.0
 40
0.0
 40
0.0
 40
1.0
 40
2.0
 40
2.0
 40
2.0
 10
34.90364657033783
 20
-1.205834749099636
 30
0.0
 10
35.173500713962
 20
-1.205834749099636
 30
0.0
 10
35.51385729150601
 20
-0.9481361975305873
 30
0.0
 10
35.51385729150601
 20
-0.7025932380167177
 30
0.0
  0
LINE
  5
D69
330
D3C
100
AcDbEntity
  8
RONDO
100
AcDbLine
 10
34.7699350577312
 20
-1.205834749099636
 30
0.0
 11
34.90364657033783
 21
-1.205834749099636
 31
0.0
  0
LINE
  5
D6A
330
D3C
100
AcDbEntity
  8
RONDO
100
AcDbLine
 10
34.7699350577312
 20
-1.538897971410548
 30
0.0
 11
34.7699350577312
 21
-1.205834749099636
 31
0.0
  0
LINE
  5
D6B
330
D3C
100
AcDbEntity
  8
RONDO
100
AcDbLine
 10
34.94011334650324
 20
-1.538897971410548
 30
0.0
 11
34.7699350577312
 21
-1.538897971410548
 31
0.0
  0
SPLINE
  5
D6C
330
D3C
100
AcDbEntity
  8
RONDO
100
AcDbSpline
210
0.0
220
0.0
230
1.0
 70
     8
 71
     2
 72
     7
 73
     4
 74
     0
 42
0.000000001
 43
0.0000000001
 40
0.0
 40
0.0
 40
0.0
 40
1.0
 40
2.0
 40
2.0
 40
2.0
 10
35.39230137095458
 20
-1.645867181495802
 30
0.0
 10
35.30721222656857
 20
-1.585089221220101
 30
0.0
 10
35.07625597752085
 20
-1.538897971410548
 30
0.0
 10
34.94011334650324
 20
-1.538897971410548
 30
0.0
  0
SPLINE
  5
D6D
330
D3C
100
AcDbEntity
  8
RONDO
100
AcDbSpline
210
0.0
220
0.0
230
1.0
 70
     8
 71
     2
 72
     7
 73
     4
 74
     0
 42
0.000000001
 43
0.0000000001
 40
0.0
 40
0.0
 40
0.0
 40
1.0
 40
2.0
 40
2.0
 40
2.0
 10
35.57220413337072
 20
-2.081037377069932
 30
0.0
 10
35.57220413337072
 20
-1.918152443531013
 30
0.0
 10
35.4773905153406
 20
-1.706645141771517
 30
0.0
 10
35.39230137095458
 20
-1.645867181495802
 30
0.0
  0
SPLINE
  5
D6E
330
D3C
100
AcDbEntity
  8
RONDO
100
AcDbSpline
210
0.0
220
0.0
230
1.0
 70
     8
 71
     2
 72
     7
 73
     4
 74
     0
 42
0.000000001
 43
0.0000000001
 40
0.0
 40
0.0
 40
0.0
 40
1.0
 40
2.0
 40
2.0
 40
2.0
 10
35.40688808142076
 20
-2.547812111987411
 30
0.0
 10
35.4871149889847
 20
-2.457860730779373
 30
0.0
 10
35.57220413337072
 20
-2.243922310608837
 30
0.0
 10
35.57220413337072
 20
-2.081037377069932
 30
0.0
  0
SPLINE
  5
D6F
330
D3C
100
AcDbEntity
  8
RONDO
100
AcDbSpline
210
0.0
220
0.0
230
1.0
 70
     8
 71
     2
 72
     7
 73
     4
 74
     0
 42
0.000000001
 43
0.0000000001
 40
0.0
 40
0.0
 40
0.0
 40
1.0
 40
2.0
 40
2.0
 40
2.0
 10
34.95226893855843
 20
-2.715559282348394
 30
0.0
 10
35.07625597752085
 20
-2.715559282348394
 30
0.0
 10
35.32423005544578
 20
-2.637763493195464
 30
0.0
 10
35.40688808142076
 20
-2.547812111987411
 30
0.0
  0
SPLINE
  5
D70
330
D3C
100
AcDbEntity
  8
RONDO
100
AcDbSpline
210
0.0
220
0.0
230
1.0
 70
     8
 71
     2
 72
     7
 73
     4
 74
     0
 42
0.000000001
 43
0.0000000001
 40
0.0
 40
0.0
 40
0.0
 40
1.0
 40
2.0
 40
2.0
 40
2.0
 10
34.18646663908439
 20
-2.452998493957295
 30
0.0
 10
34.31288479645784
 20
-2.545380993576401
 30
0.0
 10
34.74076163679885
 20
-2.715559282348394
 30
0.0
 10
34.95226893855843
 20
-2.715559282348394
 30
0.0
  0
LINE
  5
D71
330
D3C
100
AcDbEntity
  8
RONDO
100
AcDbLine
 10
34.15729321815204
 20
-2.452998493957295
 30
0.0
 11
34.18646663908439
 21
-2.452998493957295
 31
0.0
  0
LINE
  5
D72
330
D3C
100
AcDbEntity
  8
RONDO
100
AcDbLine
 10
34.15729321815204
 20
-2.878444215887313
 30
0.0
 11
34.15729321815204
 21
-2.452998493957295
 31
0.0
  0
SPLINE
  5
D73
330
D3C
100
AcDbEntity
  8
RONDO
100
AcDbSpline
210
0.0
220
0.0
230
1.0
 70
     8
 71
     2
 72
     7
 73
     4
 74
     0
 42
0.000000001
 43
0.0000000001
 40
0.0
 40
0.0
 40
0.0
 40
1.0
 40
2.0
 40
2.0
 40
2.0
 10
34.97658012266865
 20
-3.063209215125496
 30
0.0
 10
34.75048611044301
 20
-3.063209215125496
 30
0.0
 10
34.30802255963582
 20
-2.953808886629204
 30
0.0
 10
34.15729321815204
 20
-2.878444215887313
 30
0.0
  0
SPLINE
  5
D74
330
D3C
100
AcDbEntity
  8
RONDO
100
AcDbSpline
210
0.0
220
0.0
230
1.0
 70
     8
 71
     2
 72
     7
 73
     4
 74
     0
 42
0.000000001
 43
0.0000000001
 40
0.0
 40
0.0
 40
0.0
 40
1.0
 40
2.0
 40
2.0
 40
2.0
 10
35.71564011962138
 20
-2.786061716268221
 30
0.0
 10
35.5843597254258
 20
-2.922204347285813
 30
0.0
 10
35.21239860853845
 20
-3.063209215125496
 30
0.0
 10
34.97658012266865
 20
-3.063209215125496
 30
0.0
  0
SPLINE
  5
D75
330
D3C
100
AcDbEntity
  8
RONDO
100
AcDbSpline
210
0.0
220
0.0
230
1.0
 70
     8
 71
     2
 72
     7
 73
     4
 74
     0
 42
0.000000001
 43
0.0000000001
 40
0.0
 40
0.0
 40
0.0
 40
1.0
 40
2.0
 40
2.0
 40
2.0
 10
35.98063202642348
 20
-2.11021079800227
 30
0.0
 10
35.98063202642348
 20
-2.31199362611764
 30
0.0
 10
35.84205827699483
 20
-2.654781322072679
 30
0.0
 10
35.71564011962138
 20
-2.786061716268221
 30
0.0
  0
SPLINE
  5
D76
330
D3C
100
AcDbEntity
  8
RONDO
100
AcDbSpline
210
0.0
220
0.0
230
1.0
 70
     8
 71
     2
 72
     7
 73
     4
 74
     0
 42
0.000000001
 43
0.0000000001
 40
0.0
 40
0.0
 40
0.0
 40
1.0
 40
2.0
 40
2.0
 40
2.0
 10
35.77155584307505
 20
-1.555915800287735
 30
0.0
 10
35.86393834269413
 20
-1.641004944673753
 30
0.0
 10
35.98063202642348
 20
-1.91329020670895
 30
0.0
 10
35.98063202642348
 20
-2.11021079800227
 30
0.0
  0
SPLINE
  5
D77
330
D3C
100
AcDbEntity
  8
RONDO
100
AcDbSpline
210
0.0
220
0.0
230
1.0
 70
     8
 71
     2
 72
     7
 73
     4
 74
     0
 42
0.000000001
 43
0.0000000001
 40
0.0
 40
0.0
 40
0.0
 40
1.0
 40
2.0
 40
2.0
 40
2.0
 10
35.36799018684425
 20
-1.361426327405467
 30
0.0
 10
35.46280380487437
 20
-1.380875274693693
 30
0.0
 10
35.67917334345592
 20
-1.468395537490735
 30
0.0
 10
35.77155584307505
 20
-1.555915800287735
 30
0.0
  0
LINE
  5
D78
330
D3C
100
AcDbEntity
  8
RONDO
100
AcDbLine
 10
35.36799018684425
 20
-1.332252906473115
 30
0.0
 11
35.36799018684425
 21
-1.361426327405467
 31
0.0
  0
SPLINE
  5
D79
330
D3C
100
AcDbEntity
  8
RONDO
100
AcDbSpline
210
0.0
220
0.0
230
1.0
 70
     8
 71
     2
 72
     7
 73
     4
 74
     0
 42
0.000000001
 43
0.0000000001
 40
0.0
 40
0.0
 40
0.0
 40
1.0
 40
2.0
 40
2.0
 40
2.0
 10
35.92228518455883
 20
-0.6612642250292283
 30
0.0
 10
35.92228518455883
 20
-0.9092383029541366
 30
0.0
 10
35.59651531748094
 20
-1.283630538252552
 30
0.0
 10
35.36799018684425
 20
-1.332252906473115
 30
0.0
  0
SPLINE
  5
D7A
330
D3C
100
AcDbEntity
  8
RONDO
100
AcDbSpline
210
0.0
220
0.0
230
1.0
 70
     8
 71
     2
 72
     7
 73
     4
 74
     0
 42
0.000000001
 43
0.0000000001
 40
0.0
 40
0.0
 40
0.0
 40
1.0
 40
2.0
 40
2.0
 40
2.0
 10
35.6548621593457
 20
-0.1069692273147069
 30
0.0
 10
35.78614255354117
 20
-0.2017828453448232
 30
0.0
 10
35.92228518455883
 20
-0.4764992257910592
 30
0.0
 10
35.92228518455883
 20
-0.6612642250292283
 30
0.0
  0
SPLINE
  5
D7B
330
D3C
100
AcDbEntity
  8
RONDO
100
AcDbSpline
210
0.0
220
0.0
230
1.0
 70
     8
 71
     2
 72
     7
 73
     4
 74
     0
 42
0.000000001
 43
0.0000000001
 40
0.0
 40
0.0
 40
0.0
 40
1.0
 40
2.0
 40
2.0
 40
2.0
 10
35.02277137247822
 20
0.0632090614573002
 30
0.0
 10
35.22698531900469
 20
0.0632090614573002
 30
0.0
 10
35.53087512038323
 20
-0.0194489645176788
 30
0.0
 10
35.6548621593457
 20
-0.1069692273147069
 30
0.0
  0
SPLINE
  5
D7C
330
D3C
100
AcDbEntity
  8
RONDO
100
AcDbSpline
210
0.0
220
0.0
230
1.0
 70
     8
 71
     2
 72
     7
 73
     4
 74
     0
 42
0.000000001
 43
0.0000000001
 40
0.0
 40
0.0
 40
0.0
 40
1.0
 40
2.0
 40
2.0
 40
2.0
 10
34.23995124412702
 20
-0.121555937780883
 30
0.0
 10
34.37123163832254
 20
-0.0510535038610414
 30
0.0
 10
34.82098854436285
 20
0.0632090614573002
 30
0.0
 10
35.02277137247822
 20
0.0632090614573002
 30
0.0
  0
LINE
  5
D7D
330
D3C
100
AcDbEntity
  8
RONDO
100
AcDbLine
 10
34.23995124412702
 20
-0.5470016597108867
 30
0.0
 11
34.23995124412702
 21
-0.121555937780883
 31
0.0
  0
LINE
  5
D7E
330
D3C
100
AcDbEntity
  8
RONDO
100
AcDbLine
 10
34.26426242823729
 20
-0.5470016597108867
 30
0.0
 11
34.23995124412702
 21
-0.5470016597108867
 31
0.0
  0
SPLINE
  5
D7F
330
D3C
100
AcDbEntity
  8
RONDO
100
AcDbSpline
210
0.0
220
0.0
230
1.0
 70
     8
 71
     2
 72
     7
 73
     4
 74
     0
 42
0.000000001
 43
0.0000000001
 40
0.0
 40
0.0
 40
0.0
 40
1.0
 40
2.0
 40
2.0
 40
2.0
 10
34.56085887438277
 20
-0.3792544893499183
 30
0.0
 10
34.46361413794162
 20
-0.4205835023373936
 30
0.0
 10
34.32017815169095
 20
-0.5081037651344218
 30
0.0
 10
34.26426242823729
 20
-0.5470016597108867
 30
0.0
  0
SPLINE
  5
D80
330
D3C
100
AcDbEntity
  8
RONDO
100
AcDbSpline
210
0.0
220
0.0
230
1.0
 70
     8
 71
     2
 72
     7
 73
     4
 74
     0
 42
0.000000001
 43
0.0000000001
 40
0.0
 40
0.0
 40
0.0
 40
1.0
 40
2.0
 40
2.0
 40
2.0
 10
34.99116683313488
 20
-0.2844408713198021
 30
0.0
 10
34.88176650463854
 20
-0.2844408713198021
 30
0.0
 10
34.66539696605699
 20
-0.3379254763624147
 30
0.0
 10
34.56085887438277
 20
-0.3792544893499183
 30
0.0
  0
SPLINE
  5
D81
330
D3C
100
AcDbEntity
  8
RONDO
100
AcDbSpline
210
0.0
220
0.0
230
1.0
 70
     8
 71
     2
 72
     7
 73
     4
 74
     0
 42
0.000000001
 43
0.0000000001
 40
0.0
 40
0.0
 40
0.0
 40
1.0
 40
2.0
 40
2.0
 40
2.0
 10
-36.98654807185815
 20
-8.620000076834088
 30
0.0
 10
-36.98654807185815
 20
-8.311248038633465
 30
0.0
 10
-37.03517044007876
 20
-7.856628895771123
 30
0.0
 10
-37.09594840035445
 20
-7.703468435876317
 30
0.0
  0
SPLINE
  5
D82
330
D3C
100
AcDbEntity
  8
RONDO
100
AcDbSpline
210
0.0
220
0.0
230
1.0
 70
     8
 71
     2
 72
     7
 73
     4
 74
     0
 42
0.000000001
 43
0.0000000001
 40
0.0
 40
0.0
 40
0.0
 40
1.0
 40
2.0
 40
2.0
 40
2.0
 10
-37.09594840035445
 20
-7.703468435876317
 30
0.0
 10
-37.15672636063019
 20
-7.55030797598151
 30
0.0
 10
-37.36823366238966
 20
-7.392285279264655
 30
0.0
 10
-37.53598083275065
 20
-7.392285279264655
 30
0.0
  0
SPLINE
  5
D83
330
D3C
100
AcDbEntity
  8
RONDO
100
AcDbSpline
210
0.0
220
0.0
230
1.0
 70
     8
 71
     2
 72
     7
 73
     4
 74
     0
 42
0.000000001
 43
0.0000000001
 40
0.0
 40
0.0
 40
0.0
 40
1.0
 40
2.0
 40
2.0
 40
2.0
 10
-37.53598083275065
 20
-7.392285279264655
 30
0.0
 10
-37.7037280031116
 20
-7.392285279264655
 30
0.0
 10
-37.92009754169314
 20
-7.55030797598151
 30
0.0
 10
-37.98330662037987
 20
-7.708330672698366
 30
0.0
  0
SPLINE
  5
D84
330
D3C
100
AcDbEntity
  8
RONDO
100
AcDbSpline
210
0.0
220
0.0
230
1.0
 70
     8
 71
     2
 72
     7
 73
     4
 74
     0
 42
0.000000001
 43
0.0000000001
 40
0.0
 40
0.0
 40
0.0
 40
1.0
 40
2.0
 40
2.0
 40
2.0
 10
-37.98330662037987
 20
-7.708330672698366
 30
0.0
 10
-38.04408458065561
 20
-7.861491132593172
 30
0.0
 10
-38.08784471205413
 20
-8.328265867510665
 30
0.0
 10
-38.08784471205413
 20
-8.622431195245113
 30
0.0
  0
SPLINE
  5
D85
330
D3C
100
AcDbEntity
  8
RONDO
100
AcDbSpline
210
0.0
220
0.0
230
1.0
 70
     8
 71
     2
 72
     7
 73
     4
 74
     0
 42
0.000000001
 43
0.0000000001
 40
0.0
 40
0.0
 40
0.0
 40
1.0
 40
2.0
 40
2.0
 40
2.0
 10
-38.08784471205413
 20
-8.622431195245113
 30
0.0
 10
-38.08784471205413
 20
-8.938476588678838
 30
0.0
 10
-38.04894681747768
 20
-9.361491192197817
 30
0.0
 10
-37.98573773879096
 20
-9.526807244147761
 30
0.0
  0
SPLINE
  5
D86
330
D3C
100
AcDbEntity
  8
RONDO
100
AcDbSpline
210
0.0
220
0.0
230
1.0
 70
     8
 71
     2
 72
     7
 73
     4
 74
     0
 42
0.000000001
 43
0.0000000001
 40
0.0
 40
0.0
 40
0.0
 40
1.0
 40
2.0
 40
2.0
 40
2.0
 10
-37.98573773879096
 20
-9.526807244147761
 30
0.0
 10
-37.92739089692626
 20
-9.682398822453592
 30
0.0
 10
-37.71102135834471
 20
-9.85014599281456
 30
0.0
 10
-37.53598083275065
 20
-9.85014599281456
 30
0.0
  0
SPLINE
  5
D87
330
D3C
100
AcDbEntity
  8
RONDO
100
AcDbSpline
210
0.0
220
0.0
230
1.0
 70
     8
 71
     2
 72
     7
 73
     4
 74
     0
 42
0.000000001
 43
0.0000000001
 40
0.0
 40
0.0
 40
0.0
 40
1.0
 40
2.0
 40
2.0
 40
2.0
 10
-37.53598083275065
 20
-9.85014599281456
 30
0.0
 10
-37.3706647808007
 20
-9.85014599281456
 30
0.0
 10
-37.15429524221915
 20
-9.692123296097705
 30
0.0
 10
-37.09351728194341
 20
-9.534100599380835
 30
0.0
  0
SPLINE
  5
D88
330
D3C
100
AcDbEntity
  8
RONDO
100
AcDbSpline
210
0.0
220
0.0
230
1.0
 70
     8
 71
     2
 72
     7
 73
     4
 74
     0
 42
0.000000001
 43
0.0000000001
 40
0.0
 40
0.0
 40
0.0
 40
1.0
 40
2.0
 40
2.0
 40
2.0
 10
-37.09351728194341
 20
-9.534100599380835
 30
0.0
 10
-37.03517044007876
 20
-9.385802376308106
 30
0.0
 10
-36.98654807185815
 20
-8.928752115034725
 30
0.0
 10
-36.98654807185815
 20
-8.620000076834088
 30
0.0
  0
SPLINE
  5
D89
330
D3C
100
AcDbEntity
  8
RONDO
100
AcDbSpline
210
0.0
220
0.0
230
1.0
 70
     8
 71
     2
 72
     7
 73
     4
 74
     0
 42
0.000000001
 43
0.0000000001
 40
0.0
 40
0.0
 40
0.0
 40
1.0
 40
2.0
 40
2.0
 40
2.0
 10
-37.53598083275065
 20
-7.059222056953743
 30
0.0
 10
-37.04246379531182
 20
-7.059222056953743
 30
0.0
 10
-36.57812017880534
 20
-7.837179948482884
 30
0.0
 10
-36.57812017880534
 20
-8.620000076834088
 30
0.0
  0
SPLINE
  5
D8A
330
D3C
100
AcDbEntity
  8
RONDO
100
AcDbSpline
210
0.0
220
0.0
230
1.0
 70
     8
 71
     2
 72
     7
 73
     4
 74
     0
 42
0.000000001
 43
0.0000000001
 40
0.0
 40
0.0
 40
0.0
 40
1.0
 40
2.0
 40
2.0
 40
2.0
 10
-38.4962726051069
 20
-8.622431195245113
 30
0.0
 10
-38.4962726051069
 20
-7.81043764596157
 30
0.0
 10
-38.02706675177845
 20
-7.059222056953743
 30
0.0
 10
-37.53598083275065
 20
-7.059222056953743
 30
0.0
  0
SPLINE
  5
D8B
330
D3C
100
AcDbEntity
  8
RONDO
100
AcDbSpline
210
0.0
220
0.0
230
1.0
 70
     8
 71
     2
 72
     7
 73
     4
 74
     0
 42
0.000000001
 43
0.0000000001
 40
0.0
 40
0.0
 40
0.0
 40
1.0
 40
2.0
 40
2.0
 40
2.0
 10
-37.53598083275065
 20
-10.18320921512549
 30
0.0
 10
-38.03192898860047
 20
-10.18320921512549
 30
0.0
 10
-38.4962726051069
 20
-9.412544678829419
 30
0.0
 10
-38.4962726051069
 20
-8.622431195245113
 30
0.0
  0
SPLINE
  5
D8C
330
D3C
100
AcDbEntity
  8
RONDO
100
AcDbSpline
210
0.0
220
0.0
230
1.0
 70
     8
 71
     2
 72
     7
 73
     4
 74
     0
 42
0.000000001
 43
0.0000000001
 40
0.0
 40
0.0
 40
0.0
 40
1.0
 40
2.0
 40
2.0
 40
2.0
 10
-36.57812017880534
 20
-8.620000076834088
 30
0.0
 10
-36.57812017880534
 20
-9.427131389295581
 30
0.0
 10
-37.0473260321339
 20
-10.18320921512549
 30
0.0
 10
-37.53598083275065
 20
-10.18320921512549
 30
0.0
  0
SPLINE
  5
D8D
330
D3C
100
AcDbEntity
  8
RONDO
100
AcDbSpline
210
0.0
220
0.0
230
1.0
 70
     8
 71
     2
 72
     7
 73
     4
 74
     0
 42
0.000000001
 43
0.0000000001
 40
0.0
 40
0.0
 40
0.0
 40
1.0
 40
2.0
 40
2.0
 40
2.0
 10
-41.77342022317347
 20
-7.496823370938884
 30
0.0
 10
-41.84878489391539
 20
-7.445769884307267
 30
0.0
 10
-42.03354989315349
 20
-7.404440871319792
 30
0.0
 10
-42.13808798482776
 20
-7.404440871319792
 30
0.0
  0
SPLINE
  5
D8E
330
D3C
100
AcDbEntity
  8
RONDO
100
AcDbSpline
210
0.0
220
0.0
230
1.0
 70
     8
 71
     2
 72
     7
 73
     4
 74
     0
 42
0.000000001
 43
0.0000000001
 40
0.0
 40
0.0
 40
0.0
 40
1.0
 40
2.0
 40
2.0
 40
2.0
 10
-41.61539752645663
 20
-7.822593238016708
 30
0.0
 10
-41.61539752645663
 20
-7.708330672698366
 30
0.0
 10
-41.70291778925363
 20
-7.545445739159447
 30
0.0
 10
-41.77342022317347
 20
-7.496823370938884
 30
0.0
  0
SPLINE
  5
D8F
330
D3C
100
AcDbEntity
  8
RONDO
100
AcDbSpline
210
0.0
220
0.0
230
1.0
 70
     8
 71
     2
 72
     7
 73
     4
 74
     0
 42
0.000000001
 43
0.0000000001
 40
0.0
 40
0.0
 40
0.0
 40
1.0
 40
2.0
 40
2.0
 40
2.0
 10
-42.22560824762481
 20
-8.325834749099627
 30
0.0
 10
-41.95575410400059
 20
-8.325834749099627
 30
0.0
 10
-41.61539752645663
 20
-8.068136197530606
 30
0.0
 10
-41.61539752645663
 20
-7.822593238016708
 30
0.0
  0
LINE
  5
D90
330
D3C
100
AcDbEntity
  8
RONDO
100
AcDbLine
 10
-42.35931976023138
 20
-8.325834749099627
 30
0.0
 11
-42.22560824762481
 21
-8.325834749099627
 31
0.0
  0
LINE
  5
D91
330
D3C
100
AcDbEntity
  8
RONDO
100
AcDbLine
 10
-42.35931976023138
 20
-8.658897971410553
 30
0.0
 11
-42.35931976023138
 21
-8.325834749099627
 31
0.0
  0
LINE
  5
D92
330
D3C
100
AcDbEntity
  8
RONDO
100
AcDbLine
 10
-42.18914147145935
 20
-8.658897971410553
 30
0.0
 11
-42.35931976023138
 21
-8.658897971410553
 31
0.0
  0
SPLINE
  5
D93
330
D3C
100
AcDbEntity
  8
RONDO
100
AcDbSpline
210
0.0
220
0.0
230
1.0
 70
     8
 71
     2
 72
     7
 73
     4
 74
     0
 42
0.000000001
 43
0.0000000001
 40
0.0
 40
0.0
 40
0.0
 40
1.0
 40
2.0
 40
2.0
 40
2.0
 10
-41.73695344700806
 20
-8.765867181495806
 30
0.0
 10
-41.82204259139408
 20
-8.705089221220092
 30
0.0
 10
-42.0529988404418
 20
-8.658897971410553
 30
0.0
 10
-42.18914147145935
 20
-8.658897971410553
 30
0.0
  0
SPLINE
  5
D94
330
D3C
100
AcDbEntity
  8
RONDO
100
AcDbSpline
210
0.0
220
0.0
230
1.0
 70
     8
 71
     2
 72
     7
 73
     4
 74
     0
 42
0.000000001
 43
0.0000000001
 40
0.0
 40
0.0
 40
0.0
 40
1.0
 40
2.0
 40
2.0
 40
2.0
 10
-41.55705068459193
 20
-9.201037377069937
 30
0.0
 10
-41.55705068459193
 20
-9.038152443531004
 30
0.0
 10
-41.65186430262204
 20
-8.826645141771521
 30
0.0
 10
-41.73695344700806
 20
-8.765867181495806
 30
0.0
  0
SPLINE
  5
D95
330
D3C
100
AcDbEntity
  8
RONDO
100
AcDbSpline
210
0.0
220
0.0
230
1.0
 70
     8
 71
     2
 72
     7
 73
     4
 74
     0
 42
0.000000001
 43
0.0000000001
 40
0.0
 40
0.0
 40
0.0
 40
1.0
 40
2.0
 40
2.0
 40
2.0
 10
-41.72236673654189
 20
-9.667812111987416
 30
0.0
 10
-41.64213982897794
 20
-9.577860730779363
 30
0.0
 10
-41.55705068459193
 20
-9.363922310608842
 30
0.0
 10
-41.55705068459193
 20
-9.201037377069937
 30
0.0
  0
SPLINE
  5
D96
330
D3C
100
AcDbEntity
  8
RONDO
100
AcDbSpline
210
0.0
220
0.0
230
1.0
 70
     8
 71
     2
 72
     7
 73
     4
 74
     0
 42
0.000000001
 43
0.0000000001
 40
0.0
 40
0.0
 40
0.0
 40
1.0
 40
2.0
 40
2.0
 40
2.0
 10
-42.17698587940421
 20
-9.835559282348384
 30
0.0
 10
-42.0529988404418
 20
-9.835559282348384
 30
0.0
 10
-41.80502476251686
 20
-9.757763493195483
 30
0.0
 10
-41.72236673654189
 20
-9.667812111987416
 30
0.0
  0
SPLINE
  5
D97
330
D3C
100
AcDbEntity
  8
RONDO
100
AcDbSpline
210
0.0
220
0.0
230
1.0
 70
     8
 71
     2
 72
     7
 73
     4
 74
     0
 42
0.000000001
 43
0.0000000001
 40
0.0
 40
0.0
 40
0.0
 40
1.0
 40
2.0
 40
2.0
 40
2.0
 10
-42.94278817887826
 20
-9.5729984939573
 30
0.0
 10
-42.81637002150475
 20
-9.665380993576391
 30
0.0
 10
-42.38849318116368
 20
-9.835559282348384
 30
0.0
 10
-42.17698587940421
 20
-9.835559282348384
 30
0.0
  0
LINE
  5
D98
330
D3C
100
AcDbEntity
  8
RONDO
100
AcDbLine
 10
-42.97196159981055
 20
-9.5729984939573
 30
0.0
 11
-42.94278817887826
 21
-9.5729984939573
 31
0.0
  0
LINE
  5
D99
330
D3C
100
AcDbEntity
  8
RONDO
100
AcDbLine
 10
-42.97196159981055
 20
-9.998444215887317
 30
0.0
 11
-42.97196159981055
 21
-9.5729984939573
 31
0.0
  0
SPLINE
  5
D9A
330
D3C
100
AcDbEntity
  8
RONDO
100
AcDbSpline
210
0.0
220
0.0
230
1.0
 70
     8
 71
     2
 72
     7
 73
     4
 74
     0
 42
0.000000001
 43
0.0000000001
 40
0.0
 40
0.0
 40
0.0
 40
1.0
 40
2.0
 40
2.0
 40
2.0
 10
-42.15267469529393
 20
-10.18320921512549
 30
0.0
 10
-42.37876870751958
 20
-10.18320921512549
 30
0.0
 10
-42.82123225832677
 20
-10.07380888662919
 30
0.0
 10
-42.97196159981055
 20
-9.998444215887317
 30
0.0
  0
SPLINE
  5
D9B
330
D3C
100
AcDbEntity
  8
RONDO
100
AcDbSpline
210
0.0
220
0.0
230
1.0
 70
     8
 71
     2
 72
     7
 73
     4
 74
     0
 42
0.000000001
 43
0.0000000001
 40
0.0
 40
0.0
 40
0.0
 40
1.0
 40
2.0
 40
2.0
 40
2.0
 10
-41.41361469834126
 20
-9.906061716268226
 30
0.0
 10
-41.54489509253679
 20
-10.04220434728582
 30
0.0
 10
-41.91685620942419
 20
-10.18320921512549
 30
0.0
 10
-42.15267469529393
 20
-10.18320921512549
 30
0.0
  0
SPLINE
  5
D9C
330
D3C
100
AcDbEntity
  8
RONDO
100
AcDbSpline
210
0.0
220
0.0
230
1.0
 70
     8
 71
     2
 72
     7
 73
     4
 74
     0
 42
0.000000001
 43
0.0000000001
 40
0.0
 40
0.0
 40
0.0
 40
1.0
 40
2.0
 40
2.0
 40
2.0
 10
-41.14862279153911
 20
-9.230210798002261
 30
0.0
 10
-41.14862279153911
 20
-9.431993626117645
 30
0.0
 10
-41.28719654096776
 20
-9.774781322072669
 30
0.0
 10
-41.41361469834126
 20
-9.906061716268226
 30
0.0
  0
SPLINE
  5
D9D
330
D3C
100
AcDbEntity
  8
RONDO
100
AcDbSpline
210
0.0
220
0.0
230
1.0
 70
     8
 71
     2
 72
     7
 73
     4
 74
     0
 42
0.000000001
 43
0.0000000001
 40
0.0
 40
0.0
 40
0.0
 40
1.0
 40
2.0
 40
2.0
 40
2.0
 10
-41.35769897488759
 20
-8.675915800287754
 30
0.0
 10
-41.26531647526852
 20
-8.761004944673757
 30
0.0
 10
-41.14862279153911
 20
-9.033290206708954
 30
0.0
 10
-41.14862279153911
 20
-9.230210798002261
 30
0.0
  0
SPLINE
  5
D9E
330
D3C
100
AcDbEntity
  8
RONDO
100
AcDbSpline
210
0.0
220
0.0
230
1.0
 70
     8
 71
     2
 72
     7
 73
     4
 74
     0
 42
0.000000001
 43
0.0000000001
 40
0.0
 40
0.0
 40
0.0
 40
1.0
 40
2.0
 40
2.0
 40
2.0
 10
-41.76126463111834
 20
-8.481426327405458
 30
0.0
 10
-41.66645101308822
 20
-8.500875274693697
 30
0.0
 10
-41.45008147450667
 20
-8.588395537490725
 30
0.0
 10
-41.35769897488759
 20
-8.675915800287754
 30
0.0
  0
LINE
  5
D9F
330
D3C
100
AcDbEntity
  8
RONDO
100
AcDbLine
 10
-41.76126463111834
 20
-8.452252906473106
 30
0.0
 11
-41.76126463111834
 21
-8.481426327405458
 31
0.0
  0
SPLINE
  5
DA0
330
D3C
100
AcDbEntity
  8
RONDO
100
AcDbSpline
210
0.0
220
0.0
230
1.0
 70
     8
 71
     2
 72
     7
 73
     4
 74
     0
 42
0.000000001
 43
0.0000000001
 40
0.0
 40
0.0
 40
0.0
 40
1.0
 40
2.0
 40
2.0
 40
2.0
 10
-41.20696963340381
 20
-7.781264225029232
 30
0.0
 10
-41.20696963340381
 20
-8.029238302954141
 30
0.0
 10
-41.53273950048165
 20
-8.403630538252556
 30
0.0
 10
-41.76126463111834
 20
-8.452252906473106
 30
0.0
  0
SPLINE
  5
DA1
330
D3C
100
AcDbEntity
  8
RONDO
100
AcDbSpline
210
0.0
220
0.0
230
1.0
 70
     8
 71
     2
 72
     7
 73
     4
 74
     0
 42
0.000000001
 43
0.0000000001
 40
0.0
 40
0.0
 40
0.0
 40
1.0
 40
2.0
 40
2.0
 40
2.0
 10
-41.47439265861694
 20
-7.226969227314711
 30
0.0
 10
-41.34311226442142
 20
-7.321782845344827
 30
0.0
 10
-41.20696963340381
 20
-7.596499225791049
 30
0.0
 10
-41.20696963340381
 20
-7.781264225029232
 30
0.0
  0
SPLINE
  5
DA2
330
D3C
100
AcDbEntity
  8
RONDO
100
AcDbSpline
210
0.0
220
0.0
230
1.0
 70
     8
 71
     2
 72
     7
 73
     4
 74
     0
 42
0.000000001
 43
0.0000000001
 40
0.0
 40
0.0
 40
0.0
 40
1.0
 40
2.0
 40
2.0
 40
2.0
 10
-42.10648344548443
 20
-7.056790938542704
 30
0.0
 10
-41.90226949895802
 20
-7.056790938542704
 30
0.0
 10
-41.59837969757941
 20
-7.139448964517669
 30
0.0
 10
-41.47439265861694
 20
-7.226969227314711
 30
0.0
  0
SPLINE
  5
DA3
330
D3C
100
AcDbEntity
  8
RONDO
100
AcDbSpline
210
0.0
220
0.0
230
1.0
 70
     8
 71
     2
 72
     7
 73
     4
 74
     0
 42
0.000000001
 43
0.0000000001
 40
0.0
 40
0.0
 40
0.0
 40
1.0
 40
2.0
 40
2.0
 40
2.0
 10
-42.88930357383563
 20
-7.241555937780873
 30
0.0
 10
-42.75802317964005
 20
-7.171053503861045
 30
0.0
 10
-42.30826627359974
 20
-7.056790938542704
 30
0.0
 10
-42.10648344548443
 20
-7.056790938542704
 30
0.0
  0
LINE
  5
DA4
330
D3C
100
AcDbEntity
  8
RONDO
100
AcDbLine
 10
-42.88930357383563
 20
-7.667001659710891
 30
0.0
 11
-42.88930357383563
 21
-7.241555937780873
 31
0.0
  0
LINE
  5
DA5
330
D3C
100
AcDbEntity
  8
RONDO
100
AcDbLine
 10
-42.86499238972536
 20
-7.667001659710891
 30
0.0
 11
-42.88930357383563
 21
-7.667001659710891
 31
0.0
  0
SPLINE
  5
DA6
330
D3C
100
AcDbEntity
  8
RONDO
100
AcDbSpline
210
0.0
220
0.0
230
1.0
 70
     8
 71
     2
 72
     7
 73
     4
 74
     0
 42
0.000000001
 43
0.0000000001
 40
0.0
 40
0.0
 40
0.0
 40
1.0
 40
2.0
 40
2.0
 40
2.0
 10
-42.56839594357981
 20
-7.499254489349908
 30
0.0
 10
-42.66564068002097
 20
-7.540583502337383
 30
0.0
 10
-42.80907666627164
 20
-7.628103765134426
 30
0.0
 10
-42.86499238972536
 20
-7.667001659710891
 30
0.0
  0
SPLINE
  5
DA7
330
D3C
100
AcDbEntity
  8
RONDO
100
AcDbSpline
210
0.0
220
0.0
230
1.0
 70
     8
 71
     2
 72
     7
 73
     4
 74
     0
 42
0.000000001
 43
0.0000000001
 40
0.0
 40
0.0
 40
0.0
 40
1.0
 40
2.0
 40
2.0
 40
2.0
 10
-42.13808798482776
 20
-7.404440871319792
 30
0.0
 10
-42.24748831332405
 20
-7.404440871319792
 30
0.0
 10
-42.4638578519056
 20
-7.457925476362433
 30
0.0
 10
-42.56839594357981
 20
-7.499254489349908
 30
0.0
  0
SPLINE
  5
DA8
330
D3C
100
AcDbEntity
  8
RONDO
100
AcDbSpline
210
0.0
220
0.0
230
1.0
 70
     8
 71
     2
 72
     7
 73
     4
 74
     0
 42
0.000000001
 43
0.0000000001
 40
0.0
 40
0.0
 40
0.0
 40
1.0
 40
2.0
 40
2.0
 40
2.0
 10
-39.32342022317349
 20
-0.3768233709388795
 30
0.0
 10
-39.39878489391535
 20
-0.3257698843072916
 30
0.0
 10
-39.58354989315356
 20
-0.2844408713198021
 30
0.0
 10
-39.68808798482778
 20
-0.2844408713198021
 30
0.0
  0
SPLINE
  5
DA9
330
D3C
100
AcDbEntity
  8
RONDO
100
AcDbSpline
210
0.0
220
0.0
230
1.0
 70
     8
 71
     2
 72
     7
 73
     4
 74
     0
 42
0.000000001
 43
0.0000000001
 40
0.0
 40
0.0
 40
0.0
 40
1.0
 40
2.0
 40
2.0
 40
2.0
 10
-39.16539752645665
 20
-0.7025932380167319
 30
0.0
 10
-39.16539752645665
 20
-0.5883306726983762
 30
0.0
 10
-39.2529177892537
 20
-0.4254457391594713
 30
0.0
 10
-39.32342022317349
 20
-0.3768233709388795
 30
0.0
  0
SPLINE
  5
DAA
330
D3C
100
AcDbEntity
  8
RONDO
100
AcDbSpline
210
0.0
220
0.0
230
1.0
 70
     8
 71
     2
 72
     7
 73
     4
 74
     0
 42
0.000000001
 43
0.0000000001
 40
0.0
 40
0.0
 40
0.0
 40
1.0
 40
2.0
 40
2.0
 40
2.0
 10
-39.77560824762483
 20
-1.205834749099651
 30
0.0
 10
-39.50575410400066
 20
-1.205834749099651
 30
0.0
 10
-39.16539752645665
 20
-0.9481361975306157
 30
0.0
 10
-39.16539752645665
 20
-0.7025932380167319
 30
0.0
  0
LINE
  5
DAB
330
D3C
100
AcDbEntity
  8
RONDO
100
AcDbLine
 10
-39.9093197602314
 20
-1.205834749099651
 30
0.0
 11
-39.77560824762483
 21
-1.205834749099651
 31
0.0
  0
LINE
  5
DAC
330
D3C
100
AcDbEntity
  8
RONDO
100
AcDbLine
 10
-39.9093197602314
 20
-1.538897971410563
 30
0.0
 11
-39.9093197602314
 21
-1.205834749099651
 31
0.0
  0
LINE
  5
DAD
330
D3C
100
AcDbEntity
  8
RONDO
100
AcDbLine
 10
-39.73914147145936
 20
-1.538897971410563
 30
0.0
 11
-39.9093197602314
 21
-1.538897971410563
 31
0.0
  0
SPLINE
  5
DAE
330
D3C
100
AcDbEntity
  8
RONDO
100
AcDbSpline
210
0.0
220
0.0
230
1.0
 70
     8
 71
     2
 72
     7
 73
     4
 74
     0
 42
0.000000001
 43
0.0000000001
 40
0.0
 40
0.0
 40
0.0
 40
1.0
 40
2.0
 40
2.0
 40
2.0
 10
-39.28695344700808
 20
-1.645867181495816
 30
0.0
 10
-39.37204259139409
 20
-1.585089221220101
 30
0.0
 10
-39.60299884044176
 20
-1.538897971410563
 30
0.0
 10
-39.73914147145936
 20
-1.538897971410563
 30
0.0
  0
SPLINE
  5
DAF
330
D3C
100
AcDbEntity
  8
RONDO
100
AcDbSpline
210
0.0
220
0.0
230
1.0
 70
     8
 71
     2
 72
     7
 73
     4
 74
     0
 42
0.000000001
 43
0.0000000001
 40
0.0
 40
0.0
 40
0.0
 40
1.0
 40
2.0
 40
2.0
 40
2.0
 10
-39.10705068459194
 20
-2.081037377069932
 30
0.0
 10
-39.10705068459194
 20
-1.918152443531027
 30
0.0
 10
-39.20186430262205
 20
-1.706645141771517
 30
0.0
 10
-39.28695344700808
 20
-1.645867181495816
 30
0.0
  0
SPLINE
  5
DB0
330
D3C
100
AcDbEntity
  8
RONDO
100
AcDbSpline
210
0.0
220
0.0
230
1.0
 70
     8
 71
     2
 72
     7
 73
     4
 74
     0
 42
0.000000001
 43
0.0000000001
 40
0.0
 40
0.0
 40
0.0
 40
1.0
 40
2.0
 40
2.0
 40
2.0
 10
-39.2723667365419
 20
-2.547812111987425
 30
0.0
 10
-39.19213982897796
 20
-2.457860730779373
 30
0.0
 10
-39.10705068459194
 20
-2.243922310608851
 30
0.0
 10
-39.10705068459194
 20
-2.081037377069932
 30
0.0
  0
SPLINE
  5
DB1
330
D3C
100
AcDbEntity
  8
RONDO
100
AcDbSpline
210
0.0
220
0.0
230
1.0
 70
     8
 71
     2
 72
     7
 73
     4
 74
     0
 42
0.000000001
 43
0.0000000001
 40
0.0
 40
0.0
 40
0.0
 40
1.0
 40
2.0
 40
2.0
 40
2.0
 10
-39.72698587940423
 20
-2.715559282348408
 30
0.0
 10
-39.60299884044176
 20
-2.715559282348408
 30
0.0
 10
-39.35502476251688
 20
-2.637763493195492
 30
0.0
 10
-39.2723667365419
 20
-2.547812111987425
 30
0.0
  0
SPLINE
  5
DB2
330
D3C
100
AcDbEntity
  8
RONDO
100
AcDbSpline
210
0.0
220
0.0
230
1.0
 70
     8
 71
     2
 72
     7
 73
     4
 74
     0
 42
0.000000001
 43
0.0000000001
 40
0.0
 40
0.0
 40
0.0
 40
1.0
 40
2.0
 40
2.0
 40
2.0
 10
-40.49278817887826
 20
-2.452998493957309
 30
0.0
 10
-40.36637002150476
 20
-2.545380993576401
 30
0.0
 10
-39.93849318116375
 20
-2.715559282348408
 30
0.0
 10
-39.72698587940423
 20
-2.715559282348408
 30
0.0
  0
LINE
  5
DB3
330
D3C
100
AcDbEntity
  8
RONDO
100
AcDbLine
 10
-40.52196159981057
 20
-2.452998493957309
 30
0.0
 11
-40.49278817887826
 21
-2.452998493957309
 31
0.0
  0
LINE
  5
DB4
330
D3C
100
AcDbEntity
  8
RONDO
100
AcDbLine
 10
-40.52196159981057
 20
-2.878444215887313
 30
0.0
 11
-40.52196159981057
 21
-2.452998493957309
 31
0.0
  0
SPLINE
  5
DB5
330
D3C
100
AcDbEntity
  8
RONDO
100
AcDbSpline
210
0.0
220
0.0
230
1.0
 70
     8
 71
     2
 72
     7
 73
     4
 74
     0
 42
0.000000001
 43
0.0000000001
 40
0.0
 40
0.0
 40
0.0
 40
1.0
 40
2.0
 40
2.0
 40
2.0
 10
-39.70267469529395
 20
-3.063209215125496
 30
0.0
 10
-39.9287687075196
 20
-3.063209215125496
 30
0.0
 10
-40.37123225832684
 20
-2.953808886629204
 30
0.0
 10
-40.52196159981057
 20
-2.878444215887313
 30
0.0
  0
SPLINE
  5
DB6
330
D3C
100
AcDbEntity
  8
RONDO
100
AcDbSpline
210
0.0
220
0.0
230
1.0
 70
     8
 71
     2
 72
     7
 73
     4
 74
     0
 42
0.000000001
 43
0.0000000001
 40
0.0
 40
0.0
 40
0.0
 40
1.0
 40
2.0
 40
2.0
 40
2.0
 10
-38.96361469834128
 20
-2.786061716268221
 30
0.0
 10
-39.0948950925368
 20
-2.922204347285841
 30
0.0
 10
-39.46685620942421
 20
-3.063209215125496
 30
0.0
 10
-39.70267469529395
 20
-3.063209215125496
 30
0.0
  0
SPLINE
  5
DB7
330
D3C
100
AcDbEntity
  8
RONDO
100
AcDbSpline
210
0.0
220
0.0
230
1.0
 70
     8
 71
     2
 72
     7
 73
     4
 74
     0
 42
0.000000001
 43
0.0000000001
 40
0.0
 40
0.0
 40
0.0
 40
1.0
 40
2.0
 40
2.0
 40
2.0
 10
-38.69862279153918
 20
-2.110210798002285
 30
0.0
 10
-38.69862279153918
 20
-2.311993626117654
 30
0.0
 10
-38.83719654096777
 20
-2.654781322072679
 30
0.0
 10
-38.96361469834128
 20
-2.786061716268221
 30
0.0
  0
SPLINE
  5
DB8
330
D3C
100
AcDbEntity
  8
RONDO
100
AcDbSpline
210
0.0
220
0.0
230
1.0
 70
     8
 71
     2
 72
     7
 73
     4
 74
     0
 42
0.000000001
 43
0.0000000001
 40
0.0
 40
0.0
 40
0.0
 40
1.0
 40
2.0
 40
2.0
 40
2.0
 10
-38.90769897488761
 20
-1.555915800287763
 30
0.0
 10
-38.81531647526847
 20
-1.641004944673767
 30
0.0
 10
-38.69862279153918
 20
-1.913290206708964
 30
0.0
 10
-38.69862279153918
 20
-2.110210798002285
 30
0.0
  0
SPLINE
  5
DB9
330
D3C
100
AcDbEntity
  8
RONDO
100
AcDbSpline
210
0.0
220
0.0
230
1.0
 70
     8
 71
     2
 72
     7
 73
     4
 74
     0
 42
0.000000001
 43
0.0000000001
 40
0.0
 40
0.0
 40
0.0
 40
1.0
 40
2.0
 40
2.0
 40
2.0
 10
-39.31126463111835
 20
-1.361426327405467
 30
0.0
 10
-39.21645101308823
 20
-1.380875274693693
 30
0.0
 10
-39.00008147450669
 20
-1.468395537490735
 30
0.0
 10
-38.90769897488761
 20
-1.555915800287763
 30
0.0
  0
LINE
  5
DBA
330
D3C
100
AcDbEntity
  8
RONDO
100
AcDbLine
 10
-39.31126463111835
 20
-1.332252906473129
 30
0.0
 11
-39.31126463111835
 21
-1.361426327405467
 31
0.0
  0
SPLINE
  5
DBB
330
D3C
100
AcDbEntity
  8
RONDO
100
AcDbSpline
210
0.0
220
0.0
230
1.0
 70
     8
 71
     2
 72
     7
 73
     4
 74
     0
 42
0.000000001
 43
0.0000000001
 40
0.0
 40
0.0
 40
0.0
 40
1.0
 40
2.0
 40
2.0
 40
2.0
 10
-38.75696963340383
 20
-0.6612642250292283
 30
0.0
 10
-38.75696963340383
 20
-0.909238302954165
 30
0.0
 10
-39.08273950048167
 20
-1.283630538252552
 30
0.0
 10
-39.31126463111835
 20
-1.332252906473129
 30
0.0
  0
SPLINE
  5
DBC
330
D3C
100
AcDbEntity
  8
RONDO
100
AcDbSpline
210
0.0
220
0.0
230
1.0
 70
     8
 71
     2
 72
     7
 73
     4
 74
     0
 42
0.000000001
 43
0.0000000001
 40
0.0
 40
0.0
 40
0.0
 40
1.0
 40
2.0
 40
2.0
 40
2.0
 10
-39.02439265861696
 20
-0.1069692273147069
 30
0.0
 10
-38.89311226442143
 20
-0.2017828453448232
 30
0.0
 10
-38.75696963340383
 20
-0.4764992257910592
 30
0.0
 10
-38.75696963340383
 20
-0.6612642250292283
 30
0.0
  0
SPLINE
  5
DBD
330
D3C
100
AcDbEntity
  8
RONDO
100
AcDbSpline
210
0.0
220
0.0
230
1.0
 70
     8
 71
     2
 72
     7
 73
     4
 74
     0
 42
0.000000001
 43
0.0000000001
 40
0.0
 40
0.0
 40
0.0
 40
1.0
 40
2.0
 40
2.0
 40
2.0
 10
-39.65648344548444
 20
0.063209061457286
 30
0.0
 10
-39.45226949895803
 20
0.063209061457286
 30
0.0
 10
-39.14837969757943
 20
-0.019448964517693
 30
0.0
 10
-39.02439265861696
 20
-0.1069692273147069
 30
0.0
  0
SPLINE
  5
DBE
330
D3C
100
AcDbEntity
  8
RONDO
100
AcDbSpline
210
0.0
220
0.0
230
1.0
 70
     8
 71
     2
 72
     7
 73
     4
 74
     0
 42
0.000000001
 43
0.0000000001
 40
0.0
 40
0.0
 40
0.0
 40
1.0
 40
2.0
 40
2.0
 40
2.0
 10
-40.43930357383558
 20
-0.1215559377808972
 30
0.0
 10
-40.30802317964005
 20
-0.0510535038610556
 30
0.0
 10
-39.85826627359975
 20
0.063209061457286
 30
0.0
 10
-39.65648344548444
 20
0.063209061457286
 30
0.0
  0
LINE
  5
DBF
330
D3C
100
AcDbEntity
  8
RONDO
100
AcDbLine
 10
-40.43930357383558
 20
-0.5470016597108867
 30
0.0
 11
-40.43930357383558
 21
-0.1215559377808972
 31
0.0
  0
LINE
  5
DC0
330
D3C
100
AcDbEntity
  8
RONDO
100
AcDbLine
 10
-40.41499238972536
 20
-0.5470016597108867
 30
0.0
 11
-40.43930357383558
 21
-0.5470016597108867
 31
0.0
  0
SPLINE
  5
DC1
330
D3C
100
AcDbEntity
  8
RONDO
100
AcDbSpline
210
0.0
220
0.0
230
1.0
 70
     8
 71
     2
 72
     7
 73
     4
 74
     0
 42
0.000000001
 43
0.0000000001
 40
0.0
 40
0.0
 40
0.0
 40
1.0
 40
2.0
 40
2.0
 40
2.0
 10
-40.11839594357982
 20
-0.3792544893499183
 30
0.0
 10
-40.21564068002104
 20
-0.4205835023374079
 30
0.0
 10
-40.3590766662717
 20
-0.508103765134436
 30
0.0
 10
-40.41499238972536
 20
-0.5470016597108867
 30
0.0
  0
SPLINE
  5
DC2
330
D3C
100
AcDbEntity
  8
RONDO
100
AcDbSpline
210
0.0
220
0.0
230
1.0
 70
     8
 71
     2
 72
     7
 73
     4
 74
     0
 42
0.000000001
 43
0.0000000001
 40
0.0
 40
0.0
 40
0.0
 40
1.0
 40
2.0
 40
2.0
 40
2.0
 10
-39.68808798482778
 20
-0.2844408713198021
 30
0.0
 10
-39.79748831332407
 20
-0.2844408713198021
 30
0.0
 10
-40.01385785190561
 20
-0.3379254763624289
 30
0.0
 10
-40.11839594357982
 20
-0.3792544893499183
 30
0.0
  0
SPLINE
  5
DC3
330
D3C
100
AcDbEntity
  8
RONDO
100
AcDbSpline
210
0.0
220
0.0
230
1.0
 70
     8
 71
     2
 72
     7
 73
     4
 74
     0
 42
0.000000001
 43
0.0000000001
 40
0.0
 40
0.0
 40
0.0
 40
1.0
 40
2.0
 40
2.0
 40
2.0
 10
7.724878765775457
 20
28.11918346780962
 30
0.0
 10
7.564424950647577
 20
28.21399708583974
 30
0.0
 10
7.202188307404327
 20
28.29908623022573
 30
0.0
 10
6.932334163780154
 20
28.29908623022573
 30
0.0
  0
LINE
  5
DC4
330
D3C
100
AcDbEntity
  8
RONDO
100
AcDbLine
 10
6.932334163780154
 20
28.29908623022573
 30
0.0
 11
6.628444362401552
 21
28.29908623022573
 31
0.0
  0
LINE
  5
DC5
330
D3C
100
AcDbEntity
  8
RONDO
100
AcDbLine
 10
6.628444362401552
 20
28.29908623022573
 30
0.0
 11
6.628444362401552
 21
25.98952373974855
 31
0.0
  0
LINE
  5
DC6
330
D3C
100
AcDbEntity
  8
RONDO
100
AcDbLine
 10
6.628444362401552
 20
25.98952373974855
 30
0.0
 11
6.932334163780154
 21
25.98952373974855
 31
0.0
  0
SPLINE
  5
DC7
330
D3C
100
AcDbEntity
  8
RONDO
100
AcDbSpline
210
0.0
220
0.0
230
1.0
 70
     8
 71
     2
 72
     7
 73
     4
 74
     0
 42
0.000000001
 43
0.0000000001
 40
0.0
 40
0.0
 40
0.0
 40
1.0
 40
2.0
 40
2.0
 40
2.0
 10
6.932334163780154
 20
25.98952373974855
 30
0.0
 10
7.197326070582249
 20
25.98952373974855
 30
0.0
 10
7.598460608402007
 20
26.07461288413457
 30
0.0
 10
7.761345541940869
 20
26.18887544945291
 30
0.0
  0
SPLINE
  5
DC8
330
D3C
100
AcDbEntity
  8
RONDO
100
AcDbSpline
210
0.0
220
0.0
230
1.0
 70
     8
 71
     2
 72
     7
 73
     4
 74
     0
 42
0.000000001
 43
0.0000000001
 40
0.0
 40
0.0
 40
0.0
 40
1.0
 40
2.0
 40
2.0
 40
2.0
 10
7.761345541940869
 20
26.18887544945291
 30
0.0
 10
7.970421725289355
 20
26.32988031729257
 30
0.0
 10
8.179497908637785
 20
26.79665505221006
 30
0.0
 10
8.179497908637785
 20
27.14673610339817
 30
0.0
  0
SPLINE
  5
DC9
330
D3C
100
AcDbEntity
  8
RONDO
100
AcDbSpline
210
0.0
220
0.0
230
1.0
 70
     8
 71
     2
 72
     7
 73
     4
 74
     0
 42
0.000000001
 43
0.0000000001
 40
0.0
 40
0.0
 40
0.0
 40
1.0
 40
2.0
 40
2.0
 40
2.0
 10
8.179497908637785
 20
27.14673610339817
 30
0.0
 10
8.179497908637785
 20
27.49195491776423
 30
0.0
 10
7.950972778001101
 20
27.98060971838097
 30
0.0
 10
7.724878765775457
 20
28.11918346780962
 30
0.0
  0
SPLINE
  5
DCA
330
D3C
100
AcDbEntity
  8
RONDO
100
AcDbSpline
210
0.0
220
0.0
230
1.0
 70
     8
 71
     2
 72
     7
 73
     4
 74
     0
 42
0.000000001
 43
0.0000000001
 40
0.0
 40
0.0
 40
0.0
 40
1.0
 40
2.0
 40
2.0
 40
2.0
 10
7.987439554166513
 20
28.40605544031098
 30
0.0
 10
8.27674264507894
 20
28.21399708583974
 30
0.0
 10
8.595219156923718
 20
27.57947518056126
 30
0.0
 10
8.595219156923718
 20
27.14187386657612
 30
0.0
  0
SPLINE
  5
DCB
330
D3C
100
AcDbEntity
  8
RONDO
100
AcDbSpline
210
0.0
220
0.0
230
1.0
 70
     8
 71
     2
 72
     7
 73
     4
 74
     0
 42
0.000000001
 43
0.0000000001
 40
0.0
 40
0.0
 40
0.0
 40
1.0
 40
2.0
 40
2.0
 40
2.0
 10
6.912885216491901
 20
28.64430504459179
 30
0.0
 10
7.335899820010894
 20
28.64430504459179
 30
0.0
 10
7.817261265394535
 20
28.51788688721831
 30
0.0
 10
7.987439554166513
 20
28.40605544031098
 30
0.0
  0
LINE
  5
DCC
330
D3C
100
AcDbEntity
  8
RONDO
100
AcDbLine
 10
6.229740942992833
 20
28.64430504459179
 30
0.0
 11
6.912885216491901
 21
28.64430504459179
 31
0.0
  0
LINE
  5
DCD
330
D3C
100
AcDbEntity
  8
RONDO
100
AcDbLine
 10
6.229740942992833
 20
25.6443049253825
 30
0.0
 11
6.229740942992833
 21
28.64430504459179
 31
0.0
  0
LINE
  5
DCE
330
D3C
100
AcDbEntity
  8
RONDO
100
AcDbLine
 10
6.920178571725017
 20
25.6443049253825
 30
0.0
 11
6.229740942992833
 21
25.6443049253825
 31
0.0
  0
SPLINE
  5
DCF
330
D3C
100
AcDbEntity
  8
RONDO
100
AcDbSpline
210
0.0
220
0.0
230
1.0
 70
     8
 71
     2
 72
     7
 73
     4
 74
     0
 42
0.000000001
 43
0.0000000001
 40
0.0
 40
0.0
 40
0.0
 40
1.0
 40
2.0
 40
2.0
 40
2.0
 10
7.982577317344492
 20
25.88498564807434
 30
0.0
 10
7.754052186707809
 20
25.74154966182364
 30
0.0
 10
7.284846333379249
 20
25.6443049253825
 30
0.0
 10
6.920178571725017
 20
25.6443049253825
 30
0.0
  0
SPLINE
  5
DD0
330
D3C
100
AcDbEntity
  8
RONDO
100
AcDbSpline
210
0.0
220
0.0
230
1.0
 70
     8
 71
     2
 72
     7
 73
     4
 74
     0
 42
0.000000001
 43
0.0000000001
 40
0.0
 40
0.0
 40
0.0
 40
1.0
 40
2.0
 40
2.0
 40
2.0
 10
8.595219156923718
 20
27.14187386657612
 30
0.0
 10
8.595219156923718
 20
26.73101485511229
 30
0.0
 10
8.262155934612763
 20
26.0697506473125
 30
0.0
 10
7.982577317344492
 20
25.88498564807434
 30
0.0
  0
LINE
  5
DD1
330
D3C
100
AcDbEntity
  8
RONDO
100
AcDbLine
 10
3.341572270690875
 20
25.9506258451721
 30
0.0
 11
3.341572270690875
 21
25.6443049253825
 31
0.0
  0
LINE
  5
DD2
330
D3C
100
AcDbEntity
  8
RONDO
100
AcDbLine
 10
2.809157338675646
 20
25.9506258451721
 30
0.0
 11
3.341572270690875
 21
25.9506258451721
 31
0.0
  0
LINE
  5
DD3
330
D3C
100
AcDbEntity
  8
RONDO
100
AcDbLine
 10
2.809157338675646
 20
28.6540295182359
 30
0.0
 11
2.809157338675646
 21
25.9506258451721
 31
0.0
  0
LINE
  5
DD4
330
D3C
100
AcDbEntity
  8
RONDO
100
AcDbLine
 10
2.497974182063984
 20
28.6540295182359
 30
0.0
 11
2.809157338675646
 21
28.6540295182359
 31
0.0
  0
SPLINE
  5
DD5
330
D3C
100
AcDbEntity
  8
RONDO
100
AcDbSpline
210
0.0
220
0.0
230
1.0
 70
     8
 71
     2
 72
     7
 73
     4
 74
     0
 42
0.000000001
 43
0.0000000001
 40
0.0
 40
0.0
 40
0.0
 40
1.0
 40
2.0
 40
2.0
 40
2.0
 10
1.878038987251642
 20
28.23587715153898
 30
0.0
 10
2.186791025452265
 20
28.23587715153898
 30
0.0
 10
2.47852523477573
 20
28.41091767713304
 30
0.0
 10
2.497974182063984
 20
28.6540295182359
 30
0.0
  0
LINE
  5
DD6
330
D3C
100
AcDbEntity
  8
RONDO
100
AcDbLine
 10
1.878038987251642
 20
27.96116077109275
 30
0.0
 11
1.878038987251642
 21
28.23587715153898
 31
0.0
  0
LINE
  5
DD7
330
D3C
100
AcDbEntity
  8
RONDO
100
AcDbLine
 10
2.422609511322065
 20
27.96116077109275
 30
0.0
 11
1.878038987251642
 21
27.96116077109275
 31
0.0
  0
LINE
  5
DD8
330
D3C
100
AcDbEntity
  8
RONDO
100
AcDbLine
 10
2.422609511322065
 20
25.9506258451721
 30
0.0
 11
2.422609511322065
 21
27.96116077109275
 31
0.0
  0
LINE
  5
DD9
330
D3C
100
AcDbEntity
  8
RONDO
100
AcDbLine
 10
1.878038987251642
 20
25.9506258451721
 30
0.0
 11
2.422609511322065
 21
25.9506258451721
 31
0.0
  0
LINE
  5
DDA
330
D3C
100
AcDbEntity
  8
RONDO
100
AcDbLine
 10
1.878038987251642
 20
25.6443049253825
 30
0.0
 11
1.878038987251642
 21
25.9506258451721
 31
0.0
  0
LINE
  5
DDB
330
D3C
100
AcDbEntity
  8
RONDO
100
AcDbLine
 10
3.341572270690875
 20
25.6443049253825
 30
0.0
 11
1.878038987251642
 21
25.6443049253825
 31
0.0
  0
LINE
  5
DDC
330
D3C
100
AcDbEntity
  8
RONDO
100
AcDbLine
 10
-2.420178363446865
 20
28.64430504459179
 30
0.0
 11
-2.420178363446865
 21
25.6443049253825
 31
0.0
  0
LINE
  5
DDD
330
D3C
100
AcDbEntity
  8
RONDO
100
AcDbLine
 10
-2.792139480334213
 20
28.64430504459179
 30
0.0
 11
-2.420178363446865
 21
28.64430504459179
 31
0.0
  0
LINE
  5
DDE
330
D3C
100
AcDbEntity
  8
RONDO
100
AcDbLine
 10
-2.792139480334213
 20
26.26910235701685
 30
0.0
 11
-2.792139480334213
 21
28.64430504459179
 31
0.0
  0
LINE
  5
DDF
330
D3C
100
AcDbEntity
  8
RONDO
100
AcDbLine
 10
-4.00040533061545
 20
28.64430504459179
 30
0.0
 11
-2.792139480334213
 21
26.26910235701685
 31
0.0
  0
LINE
  5
DE0
330
D3C
100
AcDbEntity
  8
RONDO
100
AcDbLine
 10
-4.566855920385108
 20
28.64430504459179
 30
0.0
 11
-4.00040533061545
 21
28.64430504459179
 31
0.0
  0
LINE
  5
DE1
330
D3C
100
AcDbEntity
  8
RONDO
100
AcDbLine
 10
-4.566855920385108
 20
25.6443049253825
 30
0.0
 11
-4.566855920385108
 21
28.64430504459179
 31
0.0
  0
LINE
  5
DE2
330
D3C
100
AcDbEntity
  8
RONDO
100
AcDbLine
 10
-4.19489480349776
 20
25.6443049253825
 30
0.0
 11
-4.566855920385108
 21
25.6443049253825
 31
0.0
  0
LINE
  5
DE3
330
D3C
100
AcDbEntity
  8
RONDO
100
AcDbLine
 10
-4.19489480349776
 20
28.23101491471694
 30
0.0
 11
-4.19489480349776
 21
25.6443049253825
 31
0.0
  0
LINE
  5
DE4
330
D3C
100
AcDbEntity
  8
RONDO
100
AcDbLine
 10
-2.867504151076133
 20
25.6443049253825
 30
0.0
 11
-4.19489480349776
 21
28.23101491471694
 31
0.0
  0
LINE
  5
DE5
330
D3C
100
AcDbEntity
  8
RONDO
100
AcDbLine
 10
-2.420178363446865
 20
25.6443049253825
 30
0.0
 11
-2.867504151076133
 21
25.6443049253825
 31
0.0
  0
LINE
  5
DE6
330
D3C
100
AcDbEntity
  8
RONDO
100
AcDbLine
 10
0.9542140108646606
 20
33.58372616189754
 30
0.0
 11
0.9542140108646606
 21
30.58372604268825
 31
0.0
  0
LINE
  5
DE7
330
D3C
100
AcDbEntity
  8
RONDO
100
AcDbLine
 10
0.5822528939772554
 20
33.58372616189754
 30
0.0
 11
0.9542140108646606
 21
33.58372616189754
 31
0.0
  0
LINE
  5
DE8
330
D3C
100
AcDbEntity
  8
RONDO
100
AcDbLine
 10
0.5822528939772554
 20
31.2085234743226
 30
0.0
 11
0.5822528939772554
 21
33.58372616189754
 31
0.0
  0
LINE
  5
DE9
330
D3C
100
AcDbEntity
  8
RONDO
100
AcDbLine
 10
-0.6260129563039812
 20
33.58372616189754
 30
0.0
 11
0.5822528939772554
 21
31.2085234743226
 31
0.0
  0
LINE
  5
DEA
330
D3C
100
AcDbEntity
  8
RONDO
100
AcDbLine
 10
-1.192463546073639
 20
33.58372616189754
 30
0.0
 11
-0.6260129563039812
 21
33.58372616189754
 31
0.0
  0
LINE
  5
DEB
330
D3C
100
AcDbEntity
  8
RONDO
100
AcDbLine
 10
-1.192463546073639
 20
30.58372604268825
 30
0.0
 11
-1.192463546073639
 21
33.58372616189754
 31
0.0
  0
LINE
  5
DEC
330
D3C
100
AcDbEntity
  8
RONDO
100
AcDbLine
 10
-0.8205024291862343
 20
30.58372604268825
 30
0.0
 11
-1.192463546073639
 21
30.58372604268825
 31
0.0
  0
LINE
  5
DED
330
D3C
100
AcDbEntity
  8
RONDO
100
AcDbLine
 10
-0.8205024291862343
 20
33.17043603202269
 30
0.0
 11
-0.8205024291862343
 21
30.58372604268825
 31
0.0
  0
LINE
  5
DEE
330
D3C
100
AcDbEntity
  8
RONDO
100
AcDbLine
 10
0.506888223235336
 20
30.58372604268825
 30
0.0
 11
-0.8205024291862343
 21
33.17043603202269
 31
0.0
  0
LINE
  5
DEF
330
D3C
100
AcDbEntity
  8
RONDO
100
AcDbLine
 10
0.9542140108646606
 20
30.58372604268825
 30
0.0
 11
0.506888223235336
 21
30.58372604268825
 31
0.0
  0
SPLINE
  5
DF0
330
D3C
100
AcDbEntity
  8
RONDO
100
AcDbSpline
210
0.0
220
0.0
230
1.0
 70
     8
 71
     2
 72
     7
 73
     4
 74
     0
 42
0.000000001
 43
0.0000000001
 40
0.0
 40
0.0
 40
0.0
 40
1.0
 40
2.0
 40
2.0
 40
2.0
 10
-2.291329067858526
 20
32.99053326960657
 30
0.0
 10
-2.410453869998974
 20
33.14612484791239
 30
0.0
 10
-2.745948210720911
 20
33.30171642621822
 30
0.0
 10
-2.95502439406934
 20
33.30171642621822
 30
0.0
  0
SPLINE
  5
DF1
330
D3C
100
AcDbEntity
  8
RONDO
100
AcDbSpline
210
0.0
220
0.0
230
1.0
 70
     8
 71
     2
 72
     7
 73
     4
 74
     0
 42
0.000000001
 43
0.0000000001
 40
0.0
 40
0.0
 40
0.0
 40
1.0
 40
2.0
 40
2.0
 40
2.0
 10
-2.95502439406934
 20
33.30171642621822
 30
0.0
 10
-3.171393932650943
 20
33.30171642621822
 30
0.0
 10
-3.497163799728724
 20
33.15098708473444
 30
0.0
 10
-3.621150838691193
 20
32.99053326960657
 30
0.0
  0
SPLINE
  5
DF2
330
D3C
100
AcDbEntity
  8
RONDO
100
AcDbSpline
210
0.0
220
0.0
230
1.0
 70
     8
 71
     2
 72
     7
 73
     4
 74
     0
 42
0.000000001
 43
0.0000000001
 40
0.0
 40
0.0
 40
0.0
 40
1.0
 40
2.0
 40
2.0
 40
2.0
 10
-3.621150838691193
 20
32.99053326960657
 30
0.0
 10
-3.740275640831583
 20
32.83737280971177
 30
0.0
 10
-3.866693798205091
 20
32.37546031161634
 30
0.0
 10
-3.866693798205091
 20
32.0837261022929
 30
0.0
  0
SPLINE
  5
DF3
330
D3C
100
AcDbEntity
  8
RONDO
100
AcDbSpline
210
0.0
220
0.0
230
1.0
 70
     8
 71
     2
 72
     7
 73
     4
 74
     0
 42
0.000000001
 43
0.0000000001
 40
0.0
 40
0.0
 40
0.0
 40
1.0
 40
2.0
 40
2.0
 40
2.0
 10
-3.866693798205091
 20
32.0837261022929
 30
0.0
 10
-3.866693798205091
 20
31.49296432841295
 30
0.0
 10
-3.370745642355274
 20
30.86573577836758
 30
0.0
 10
-2.95502439406934
 20
30.86573577836758
 30
0.0
  0
SPLINE
  5
DF4
330
D3C
100
AcDbEntity
  8
RONDO
100
AcDbSpline
210
0.0
220
0.0
230
1.0
 70
     8
 71
     2
 72
     7
 73
     4
 74
     0
 42
0.000000001
 43
0.0000000001
 40
0.0
 40
0.0
 40
0.0
 40
1.0
 40
2.0
 40
2.0
 40
2.0
 10
-2.95502439406934
 20
30.86573577836758
 30
0.0
 10
-2.539303145783463
 20
30.86573577836758
 30
0.0
 10
-2.045786108344628
 20
31.49296432841295
 30
0.0
 10
-2.045786108344628
 20
32.0837261022929
 30
0.0
  0
SPLINE
  5
DF5
330
D3C
100
AcDbEntity
  8
RONDO
100
AcDbSpline
210
0.0
220
0.0
230
1.0
 70
     8
 71
     2
 72
     7
 73
     4
 74
     0
 42
0.000000001
 43
0.0000000001
 40
0.0
 40
0.0
 40
0.0
 40
1.0
 40
2.0
 40
2.0
 40
2.0
 10
-2.045786108344628
 20
32.0837261022929
 30
0.0
 10
-2.045786108344628
 20
32.3803225484384
 30
0.0
 10
-2.174635384129175
 20
32.83980392812279
 30
0.0
 10
-2.291329067858526
 20
32.99053326960657
 30
0.0
  0
SPLINE
  5
DF6
330
D3C
100
AcDbEntity
  8
RONDO
100
AcDbSpline
210
0.0
220
0.0
230
1.0
 70
     8
 71
     2
 72
     7
 73
     4
 74
     0
 42
0.000000001
 43
0.0000000001
 40
0.0
 40
0.0
 40
0.0
 40
1.0
 40
2.0
 40
2.0
 40
2.0
 10
-2.957455512480379
 20
33.64693524058429
 30
0.0
 10
-2.651134592690794
 20
33.64693524058429
 30
0.0
 10
-2.160048673662998
 20
33.43299682041376
 30
0.0
 10
-1.98987038489102
 20
33.24093846594251
 30
0.0
  0
SPLINE
  5
DF7
330
D3C
100
AcDbEntity
  8
RONDO
100
AcDbSpline
210
0.0
220
0.0
230
1.0
 70
     8
 71
     2
 72
     7
 73
     4
 74
     0
 42
0.000000001
 43
0.0000000001
 40
0.0
 40
0.0
 40
0.0
 40
1.0
 40
2.0
 40
2.0
 40
2.0
 10
-3.922609521658756
 20
33.24093846594251
 30
0.0
 10
-3.7475689960647
 20
33.44029017564685
 30
0.0
 10
-3.258914195447943
 20
33.64693524058429
 30
0.0
 10
-2.957455512480379
 20
33.64693524058429
 30
0.0
  0
SPLINE
  5
DF8
330
D3C
100
AcDbEntity
  8
RONDO
100
AcDbSpline
210
0.0
220
0.0
230
1.0
 70
     8
 71
     2
 72
     7
 73
     4
 74
     0
 42
0.000000001
 43
0.0000000001
 40
0.0
 40
0.0
 40
0.0
 40
1.0
 40
2.0
 40
2.0
 40
2.0
 10
-4.282415046490967
 20
32.0837261022929
 30
0.0
 10
-4.282415046490967
 20
32.46054945600234
 30
0.0
 10
-4.095218928841774
 20
33.03429340100507
 30
0.0
 10
-3.922609521658756
 20
33.24093846594251
 30
0.0
  0
SPLINE
  5
DF9
330
D3C
100
AcDbEntity
  8
RONDO
100
AcDbSpline
210
0.0
220
0.0
230
1.0
 70
     8
 71
     2
 72
     7
 73
     4
 74
     0
 42
0.000000001
 43
0.0000000001
 40
0.0
 40
0.0
 40
0.0
 40
1.0
 40
2.0
 40
2.0
 40
2.0
 10
-3.925040640069738
 20
30.92894485705431
 30
0.0
 10
-4.097650047252813
 20
31.12829656675867
 30
0.0
 10
-4.282415046490967
 20
31.71419610381655
 30
0.0
 10
-4.282415046490967
 20
32.0837261022929
 30
0.0
  0
SPLINE
  5
DFA
330
D3C
100
AcDbEntity
  8
RONDO
100
AcDbSpline
210
0.0
220
0.0
230
1.0
 70
     8
 71
     2
 72
     7
 73
     4
 74
     0
 42
0.000000001
 43
0.0000000001
 40
0.0
 40
0.0
 40
0.0
 40
1.0
 40
2.0
 40
2.0
 40
2.0
 10
-2.957455512480379
 20
30.52051696400152
 30
0.0
 10
-3.261345313858981
 20
30.52051696400152
 30
0.0
 10
-3.7475689960647
 20
30.72716202893893
 30
0.0
 10
-3.925040640069738
 20
30.92894485705431
 30
0.0
  0
SPLINE
  5
DFB
330
D3C
100
AcDbEntity
  8
RONDO
100
AcDbSpline
210
0.0
220
0.0
230
1.0
 70
     8
 71
     2
 72
     7
 73
     4
 74
     0
 42
0.000000001
 43
0.0000000001
 40
0.0
 40
0.0
 40
0.0
 40
1.0
 40
2.0
 40
2.0
 40
2.0
 10
-1.98987038489102
 20
30.92894485705431
 30
0.0
 10
-2.174635384129175
 20
30.71986867370585
 30
0.0
 10
-2.663290184745932
 20
30.52051696400152
 30
0.0
 10
-2.957455512480379
 20
30.52051696400152
 30
0.0
  0
SPLINE
  5
DFC
330
D3C
100
AcDbEntity
  8
RONDO
100
AcDbSpline
210
0.0
220
0.0
230
1.0
 70
     8
 71
     2
 72
     7
 73
     4
 74
     0
 42
0.000000001
 43
0.0000000001
 40
0.0
 40
0.0
 40
0.0
 40
1.0
 40
2.0
 40
2.0
 40
2.0
 10
-1.630064860058752
 20
32.0837261022929
 30
0.0
 10
-1.630064860058752
 20
31.71905834063861
 30
0.0
 10
-1.814829859296963
 20
31.12829656675867
 30
0.0
 10
-1.98987038489102
 20
30.92894485705431
 30
0.0
  0
SPLINE
  5
DFD
330
D3C
100
AcDbEntity
  8
RONDO
100
AcDbSpline
210
0.0
220
0.0
230
1.0
 70
     8
 71
     2
 72
     7
 73
     4
 74
     0
 42
0.000000001
 43
0.0000000001
 40
0.0
 40
0.0
 40
0.0
 40
1.0
 40
2.0
 40
2.0
 40
2.0
 10
-1.98987038489102
 20
33.24093846594251
 30
0.0
 10
-1.819692096118984
 20
33.04158675623816
 30
0.0
 10
-1.630064860058752
 20
32.4581183375913
 30
0.0
 10
-1.630064860058752
 20
32.0837261022929
 30
0.0
  0
SPLINE
  5
DFE
330
D3C
100
AcDbEntity
  8
RONDO
100
AcDbSpline
210
0.0
220
0.0
230
1.0
 70
     8
 71
     2
 72
     7
 73
     4
 74
     0
 42
0.000000001
 43
0.0000000001
 40
0.0
 40
0.0
 40
0.0
 40
1.0
 40
2.0
 40
2.0
 40
2.0
 10
-5.400729515564108
 20
33.13640037426828
 30
0.0
 10
-5.485818659950126
 20
33.19231609772194
 30
0.0
 10
-5.711912672175827
 20
33.23850734753148
 30
0.0
 10
-5.877228724125728
 20
33.23850734753148
 30
0.0
  0
LINE
  5
DFF
330
D3C
100
AcDbEntity
  8
RONDO
100
AcDbLine
 10
-5.877228724125728
 20
33.23850734753148
 30
0.0
 11
-6.273501025123408
 21
33.23850734753148
 31
0.0
  0
LINE
  5
E00
330
D3C
100
AcDbEntity
  8
RONDO
100
AcDbLine
 10
-6.273501025123408
 20
33.23850734753148
 30
0.0
 11
-6.273501025123408
 21
32.11046840481421
 31
0.0
  0
LINE
  5
E01
330
D3C
100
AcDbEntity
  8
RONDO
100
AcDbLine
 10
-6.273501025123408
 20
32.11046840481421
 30
0.0
 11
-5.923419973935239
 21
32.11046840481421
 31
0.0
  0
SPLINE
  5
E02
330
D3C
100
AcDbEntity
  8
RONDO
100
AcDbSpline
210
0.0
220
0.0
230
1.0
 70
     8
 71
     2
 72
     7
 73
     4
 74
     0
 42
0.000000001
 43
0.0000000001
 40
0.0
 40
0.0
 40
0.0
 40
1.0
 40
2.0
 40
2.0
 40
2.0
 10
-5.923419973935239
 20
32.11046840481421
 30
0.0
 10
-5.750810566752221
 20
32.11046840481421
 30
0.0
 10
-5.476094186306028
 20
32.17124636508994
 30
0.0
 10
-5.381280568275911
 20
32.26605998312006
 30
0.0
  0
SPLINE
  5
E03
330
D3C
100
AcDbEntity
  8
RONDO
100
AcDbSpline
210
0.0
220
0.0
230
1.0
 70
     8
 71
     2
 72
     7
 73
     4
 74
     0
 42
0.000000001
 43
0.0000000001
 40
0.0
 40
0.0
 40
0.0
 40
1.0
 40
2.0
 40
2.0
 40
2.0
 10
-5.381280568275911
 20
32.26605998312006
 30
0.0
 10
-5.293760305478855
 20
32.34871800909501
 30
0.0
 10
-5.211102279503876
 20
32.58210537655377
 30
0.0
 10
-5.211102279503876
 20
32.73769695485959
 30
0.0
  0
SPLINE
  5
E04
330
D3C
100
AcDbEntity
  8
RONDO
100
AcDbSpline
210
0.0
220
0.0
230
1.0
 70
     8
 71
     2
 72
     7
 73
     4
 74
     0
 42
0.000000001
 43
0.0000000001
 40
0.0
 40
0.0
 40
0.0
 40
1.0
 40
2.0
 40
2.0
 40
2.0
 10
-5.211102279503876
 20
32.73769695485959
 30
0.0
 10
-5.211102279503876
 20
32.86897734905514
 30
0.0
 10
-5.30348477912301
 20
33.07076017717051
 30
0.0
 10
-5.400729515564108
 20
33.13640037426828
 30
0.0
  0
LINE
  5
E05
330
D3C
100
AcDbEntity
  8
RONDO
100
AcDbLine
 10
-5.417747344441323
 20
31.88923662941062
 30
0.0
 11
-4.35048636199977
 21
30.58372604268825
 31
0.0
  0
SPLINE
  5
E06
330
D3C
100
AcDbEntity
  8
RONDO
100
AcDbSpline
210
0.0
220
0.0
230
1.0
 70
     8
 71
     2
 72
     7
 73
     4
 74
     0
 42
0.000000001
 43
0.0000000001
 40
0.0
 40
0.0
 40
0.0
 40
1.0
 40
2.0
 40
2.0
 40
2.0
 10
-4.795381031217999
 20
32.76930149420297
 30
0.0
 10
-4.795381031217999
 20
32.4411005087141
 30
0.0
 10
-5.130875371939936
 20
31.99620583949587
 30
0.0
 10
-5.417747344441323
 20
31.88923662941062
 30
0.0
  0
SPLINE
  5
E07
330
D3C
100
AcDbEntity
  8
RONDO
100
AcDbSpline
210
0.0
220
0.0
230
1.0
 70
     8
 71
     2
 72
     7
 73
     4
 74
     0
 42
0.000000001
 43
0.0000000001
 40
0.0
 40
0.0
 40
0.0
 40
1.0
 40
2.0
 40
2.0
 40
2.0
 10
-5.135737608762013
 20
33.42570346518069
 30
0.0
 10
-4.977714912045172
 20
33.32359649191749
 30
0.0
 10
-4.795381031217999
 20
33.00511998007273
 30
0.0
 10
-4.795381031217999
 20
32.76930149420297
 30
0.0
  0
SPLINE
  5
E08
330
D3C
100
AcDbEntity
  8
RONDO
100
AcDbSpline
210
0.0
220
0.0
230
1.0
 70
     8
 71
     2
 72
     7
 73
     4
 74
     0
 42
0.000000001
 43
0.0000000001
 40
0.0
 40
0.0
 40
0.0
 40
1.0
 40
2.0
 40
2.0
 40
2.0
 10
-5.899108789824964
 20
33.58372616189754
 30
0.0
 10
-5.641410238255986
 20
33.58372616189754
 30
0.0
 10
-5.293760305478855
 20
33.52781043844388
 30
0.0
 10
-5.135737608762013
 20
33.42570346518069
 30
0.0
  0
LINE
  5
E09
330
D3C
100
AcDbEntity
  8
RONDO
100
AcDbLine
 10
-6.67220444453207
 20
33.58372616189754
 30
0.0
 11
-5.899108789824964
 21
33.58372616189754
 31
0.0
  0
LINE
  5
E0A
330
D3C
100
AcDbEntity
  8
RONDO
100
AcDbLine
 10
-6.67220444453207
 20
30.58372604268825
 30
0.0
 11
-6.67220444453207
 21
33.58372616189754
 31
0.0
  0
LINE
  5
E0B
330
D3C
100
AcDbEntity
  8
RONDO
100
AcDbLine
 10
-6.273501025123408
 20
30.58372604268825
 30
0.0
 11
-6.67220444453207
 21
30.58372604268825
 31
0.0
  0
LINE
  5
E0C
330
D3C
100
AcDbEntity
  8
RONDO
100
AcDbLine
 10
-6.273501025123408
 20
31.7774051825033
 30
0.0
 11
-6.273501025123408
 21
30.58372604268825
 31
0.0
  0
LINE
  5
E0D
330
D3C
100
AcDbEntity
  8
RONDO
100
AcDbLine
 10
-5.816450763850042
 20
31.7774051825033
 30
0.0
 11
-6.273501025123408
 21
31.7774051825033
 31
0.0
  0
LINE
  5
E0E
330
D3C
100
AcDbEntity
  8
RONDO
100
AcDbLine
 10
-4.86831458354888
 20
30.58372604268825
 30
0.0
 11
-5.816450763850042
 21
31.7774051825033
 31
0.0
  0
LINE
  5
E0F
330
D3C
100
AcDbEntity
  8
RONDO
100
AcDbLine
 10
-4.35048636199977
 20
30.58372604268825
 30
0.0
 11
-4.86831458354888
 21
30.58372604268825
 31
0.0
  0
SPLINE
  5
E10
330
D3C
100
AcDbEntity
  8
RONDO
100
AcDbSpline
210
0.0
220
0.0
230
1.0
 70
     8
 71
     2
 72
     7
 73
     4
 74
     0
 42
0.000000001
 43
0.0000000001
 40
0.0
 40
0.0
 40
0.0
 40
1.0
 40
2.0
 40
2.0
 40
2.0
 10
3.057131436404375
 20
33.05860458511538
 30
0.0
 10
2.896677621276495
 20
33.15341820314549
 30
0.0
 10
2.534440978033188
 20
33.23850734753148
 30
0.0
 10
2.264586834409072
 20
33.23850734753148
 30
0.0
  0
LINE
  5
E11
330
D3C
100
AcDbEntity
  8
RONDO
100
AcDbLine
 10
2.264586834409072
 20
33.23850734753148
 30
0.0
 11
1.96069703303047
 21
33.23850734753148
 31
0.0
  0
LINE
  5
E12
330
D3C
100
AcDbEntity
  8
RONDO
100
AcDbLine
 10
1.96069703303047
 20
33.23850734753148
 30
0.0
 11
1.96069703303047
 21
30.92894485705431
 31
0.0
  0
LINE
  5
E13
330
D3C
100
AcDbEntity
  8
RONDO
100
AcDbLine
 10
1.96069703303047
 20
30.92894485705431
 30
0.0
 11
2.264586834409072
 21
30.92894485705431
 31
0.0
  0
SPLINE
  5
E14
330
D3C
100
AcDbEntity
  8
RONDO
100
AcDbSpline
210
0.0
220
0.0
230
1.0
 70
     8
 71
     2
 72
     7
 73
     4
 74
     0
 42
0.000000001
 43
0.0000000001
 40
0.0
 40
0.0
 40
0.0
 40
1.0
 40
2.0
 40
2.0
 40
2.0
 10
2.264586834409072
 20
30.92894485705431
 30
0.0
 10
2.529578741211111
 20
30.92894485705431
 30
0.0
 10
2.930713279030868
 20
31.01403400144032
 30
0.0
 10
3.093598212569787
 20
31.12829656675867
 30
0.0
  0
SPLINE
  5
E15
330
D3C
100
AcDbEntity
  8
RONDO
100
AcDbSpline
210
0.0
220
0.0
230
1.0
 70
     8
 71
     2
 72
     7
 73
     4
 74
     0
 42
0.000000001
 43
0.0000000001
 40
0.0
 40
0.0
 40
0.0
 40
1.0
 40
2.0
 40
2.0
 40
2.0
 10
3.093598212569787
 20
31.12829656675867
 30
0.0
 10
3.302674395918216
 20
31.26930143459832
 30
0.0
 10
3.511750579266703
 20
31.73607616951581
 30
0.0
 10
3.511750579266703
 20
32.08615722070393
 30
0.0
  0
SPLINE
  5
E16
330
D3C
100
AcDbEntity
  8
RONDO
100
AcDbSpline
210
0.0
220
0.0
230
1.0
 70
     8
 71
     2
 72
     7
 73
     4
 74
     0
 42
0.000000001
 43
0.0000000001
 40
0.0
 40
0.0
 40
0.0
 40
1.0
 40
2.0
 40
2.0
 40
2.0
 10
3.511750579266703
 20
32.08615722070393
 30
0.0
 10
3.511750579266703
 20
32.43137603506999
 30
0.0
 10
3.28322544863002
 20
32.92003083568673
 30
0.0
 10
3.057131436404375
 20
33.05860458511538
 30
0.0
  0
SPLINE
  5
E17
330
D3C
100
AcDbEntity
  8
RONDO
100
AcDbSpline
210
0.0
220
0.0
230
1.0
 70
     8
 71
     2
 72
     7
 73
     4
 74
     0
 42
0.000000001
 43
0.0000000001
 40
0.0
 40
0.0
 40
0.0
 40
1.0
 40
2.0
 40
2.0
 40
2.0
 10
3.319692224795431
 20
33.34547655761674
 30
0.0
 10
3.608995315707858
 20
33.15341820314549
 30
0.0
 10
3.927471827552579
 20
32.51889629786702
 30
0.0
 10
3.927471827552579
 20
32.08129498388188
 30
0.0
  0
SPLINE
  5
E18
330
D3C
100
AcDbEntity
  8
RONDO
100
AcDbSpline
210
0.0
220
0.0
230
1.0
 70
     8
 71
     2
 72
     7
 73
     4
 74
     0
 42
0.000000001
 43
0.0000000001
 40
0.0
 40
0.0
 40
0.0
 40
1.0
 40
2.0
 40
2.0
 40
2.0
 10
2.245137887120819
 20
33.58372616189754
 30
0.0
 10
2.668152490639812
 20
33.58372616189754
 30
0.0
 10
3.149513936023453
 20
33.45730800452407
 30
0.0
 10
3.319692224795431
 20
33.34547655761674
 30
0.0
  0
LINE
  5
E19
330
D3C
100
AcDbEntity
  8
RONDO
100
AcDbLine
 10
1.561993613621808
 20
33.58372616189754
 30
0.0
 11
2.245137887120819
 21
33.58372616189754
 31
0.0
  0
LINE
  5
E1A
330
D3C
100
AcDbEntity
  8
RONDO
100
AcDbLine
 10
1.561993613621808
 20
30.58372604268825
 30
0.0
 11
1.561993613621808
 21
33.58372616189754
 31
0.0
  0
LINE
  5
E1B
330
D3C
100
AcDbEntity
  8
RONDO
100
AcDbLine
 10
2.252431242353878
 20
30.58372604268825
 30
0.0
 11
1.561993613621808
 21
30.58372604268825
 31
0.0
  0
SPLINE
  5
E1C
330
D3C
100
AcDbEntity
  8
RONDO
100
AcDbSpline
210
0.0
220
0.0
230
1.0
 70
     8
 71
     2
 72
     7
 73
     4
 74
     0
 42
0.000000001
 43
0.0000000001
 40
0.0
 40
0.0
 40
0.0
 40
1.0
 40
2.0
 40
2.0
 40
2.0
 10
3.314829987973411
 20
30.82440676538009
 30
0.0
 10
3.086304857336727
 20
30.6809707791294
 30
0.0
 10
2.617099004008167
 20
30.58372604268825
 30
0.0
 10
2.252431242353878
 20
30.58372604268825
 30
0.0
  0
SPLINE
  5
E1D
330
D3C
100
AcDbEntity
  8
RONDO
100
AcDbSpline
210
0.0
220
0.0
230
1.0
 70
     8
 71
     2
 72
     7
 73
     4
 74
     0
 42
0.000000001
 43
0.0000000001
 40
0.0
 40
0.0
 40
0.0
 40
1.0
 40
2.0
 40
2.0
 40
2.0
 10
3.927471827552579
 20
32.08129498388188
 30
0.0
 10
3.927471827552579
 20
31.67043597241805
 30
0.0
 10
3.594408605241682
 20
31.00917176461826
 30
0.0
 10
3.314829987973411
 20
30.82440676538009
 30
0.0
  0
SPLINE
  5
E1E
330
D3C
100
AcDbEntity
  8
RONDO
100
AcDbSpline
210
0.0
220
0.0
230
1.0
 70
     8
 71
     2
 72
     7
 73
     4
 74
     0
 42
0.000000001
 43
0.0000000001
 40
0.0
 40
0.0
 40
0.0
 40
1.0
 40
2.0
 40
2.0
 40
2.0
 10
6.181118594576133
 20
32.99053326960657
 30
0.0
 10
6.061993792435742
 20
33.14612484791239
 30
0.0
 10
5.726499451713749
 20
33.30171642621822
 30
0.0
 10
5.51742326836532
 20
33.30171642621822
 30
0.0
  0
SPLINE
  5
E1F
330
D3C
100
AcDbEntity
  8
RONDO
100
AcDbSpline
210
0.0
220
0.0
230
1.0
 70
     8
 71
     2
 72
     7
 73
     4
 74
     0
 42
0.000000001
 43
0.0000000001
 40
0.0
 40
0.0
 40
0.0
 40
1.0
 40
2.0
 40
2.0
 40
2.0
 10
5.51742326836532
 20
33.30171642621822
 30
0.0
 10
5.301053729783774
 20
33.30171642621822
 30
0.0
 10
4.975283862705936
 20
33.15098708473444
 30
0.0
 10
4.851296823743467
 20
32.99053326960657
 30
0.0
  0
SPLINE
  5
E20
330
D3C
100
AcDbEntity
  8
RONDO
100
AcDbSpline
210
0.0
220
0.0
230
1.0
 70
     8
 71
     2
 72
     7
 73
     4
 74
     0
 42
0.000000001
 43
0.0000000001
 40
0.0
 40
0.0
 40
0.0
 40
1.0
 40
2.0
 40
2.0
 40
2.0
 10
4.851296823743467
 20
32.99053326960657
 30
0.0
 10
4.732172021603076
 20
32.83737280971177
 30
0.0
 10
4.605753864229569
 20
32.37546031161634
 30
0.0
 10
4.605753864229569
 20
32.0837261022929
 30
0.0
  0
SPLINE
  5
E21
330
D3C
100
AcDbEntity
  8
RONDO
100
AcDbSpline
210
0.0
220
0.0
230
1.0
 70
     8
 71
     2
 72
     7
 73
     4
 74
     0
 42
0.000000001
 43
0.0000000001
 40
0.0
 40
0.0
 40
0.0
 40
1.0
 40
2.0
 40
2.0
 40
2.0
 10
4.605753864229569
 20
32.0837261022929
 30
0.0
 10
4.605753864229569
 20
31.49296432841295
 30
0.0
 10
5.101702020079386
 20
30.86573577836758
 30
0.0
 10
5.51742326836532
 20
30.86573577836758
 30
0.0
  0
SPLINE
  5
E22
330
D3C
100
AcDbEntity
  8
RONDO
100
AcDbSpline
210
0.0
220
0.0
230
1.0
 70
     8
 71
     2
 72
     7
 73
     4
 74
     0
 42
0.000000001
 43
0.0000000001
 40
0.0
 40
0.0
 40
0.0
 40
1.0
 40
2.0
 40
2.0
 40
2.0
 10
5.51742326836532
 20
30.86573577836758
 30
0.0
 10
5.933144516651196
 20
30.86573577836758
 30
0.0
 10
6.426661554089974
 20
31.49296432841295
 30
0.0
 10
6.426661554089974
 20
32.0837261022929
 30
0.0
  0
SPLINE
  5
E23
330
D3C
100
AcDbEntity
  8
RONDO
100
AcDbSpline
210
0.0
220
0.0
230
1.0
 70
     8
 71
     2
 72
     7
 73
     4
 74
     0
 42
0.000000001
 43
0.0000000001
 40
0.0
 40
0.0
 40
0.0
 40
1.0
 40
2.0
 40
2.0
 40
2.0
 10
6.426661554089974
 20
32.0837261022929
 30
0.0
 10
6.426661554089974
 20
32.3803225484384
 30
0.0
 10
6.297812278305485
 20
32.83980392812279
 30
0.0
 10
6.181118594576133
 20
32.99053326960657
 30
0.0
  0
SPLINE
  5
E24
330
D3C
100
AcDbEntity
  8
RONDO
100
AcDbSpline
210
0.0
220
0.0
230
1.0
 70
     8
 71
     2
 72
     7
 73
     4
 74
     0
 42
0.000000001
 43
0.0000000001
 40
0.0
 40
0.0
 40
0.0
 40
1.0
 40
2.0
 40
2.0
 40
2.0
 10
5.514992149954281
 20
33.64693524058429
 30
0.0
 10
5.821313069743865
 20
33.64693524058429
 30
0.0
 10
6.312398988771661
 20
33.43299682041376
 30
0.0
 10
6.48257727754364
 20
33.24093846594251
 30
0.0
  0
SPLINE
  5
E25
330
D3C
100
AcDbEntity
  8
RONDO
100
AcDbSpline
210
0.0
220
0.0
230
1.0
 70
     8
 71
     2
 72
     7
 73
     4
 74
     0
 42
0.000000001
 43
0.0000000001
 40
0.0
 40
0.0
 40
0.0
 40
1.0
 40
2.0
 40
2.0
 40
2.0
 10
4.549838140775904
 20
33.24093846594251
 30
0.0
 10
4.72487866636996
 20
33.44029017564685
 30
0.0
 10
5.213533466986717
 20
33.64693524058429
 30
0.0
 10
5.514992149954281
 20
33.64693524058429
 30
0.0
  0
SPLINE
  5
E26
330
D3C
100
AcDbEntity
  8
RONDO
100
AcDbSpline
210
0.0
220
0.0
230
1.0
 70
     8
 71
     2
 72
     7
 73
     4
 74
     0
 42
0.000000001
 43
0.0000000001
 40
0.0
 40
0.0
 40
0.0
 40
1.0
 40
2.0
 40
2.0
 40
2.0
 10
4.190032615943692
 20
32.0837261022929
 30
0.0
 10
4.190032615943692
 20
32.46054945600234
 30
0.0
 10
4.377228733592886
 20
33.03429340100507
 30
0.0
 10
4.549838140775904
 20
33.24093846594251
 30
0.0
  0
SPLINE
  5
E27
330
D3C
100
AcDbEntity
  8
RONDO
100
AcDbSpline
210
0.0
220
0.0
230
1.0
 70
     8
 71
     2
 72
     7
 73
     4
 74
     0
 42
0.000000001
 43
0.0000000001
 40
0.0
 40
0.0
 40
0.0
 40
1.0
 40
2.0
 40
2.0
 40
2.0
 10
4.547407022364922
 20
30.92894485705431
 30
0.0
 10
4.374797615181847
 20
31.12829656675867
 30
0.0
 10
4.190032615943692
 20
31.71419610381655
 30
0.0
 10
4.190032615943692
 20
32.0837261022929
 30
0.0
  0
SPLINE
  5
E28
330
D3C
100
AcDbEntity
  8
RONDO
100
AcDbSpline
210
0.0
220
0.0
230
1.0
 70
     8
 71
     2
 72
     7
 73
     4
 74
     0
 42
0.000000001
 43
0.0000000001
 40
0.0
 40
0.0
 40
0.0
 40
1.0
 40
2.0
 40
2.0
 40
2.0
 10
5.514992149954281
 20
30.52051696400152
 30
0.0
 10
5.211102348575678
 20
30.52051696400152
 30
0.0
 10
4.72487866636996
 20
30.72716202893893
 30
0.0
 10
4.547407022364922
 20
30.92894485705431
 30
0.0
  0
SPLINE
  5
E29
330
D3C
100
AcDbEntity
  8
RONDO
100
AcDbSpline
210
0.0
220
0.0
230
1.0
 70
     8
 71
     2
 72
     7
 73
     4
 74
     0
 42
0.000000001
 43
0.0000000001
 40
0.0
 40
0.0
 40
0.0
 40
1.0
 40
2.0
 40
2.0
 40
2.0
 10
6.48257727754364
 20
30.92894485705431
 30
0.0
 10
6.297812278305485
 20
30.71986867370585
 30
0.0
 10
5.809157477688728
 20
30.52051696400152
 30
0.0
 10
5.514992149954281
 20
30.52051696400152
 30
0.0
  0
SPLINE
  5
E2A
330
D3C
100
AcDbEntity
  8
RONDO
100
AcDbSpline
210
0.0
220
0.0
230
1.0
 70
     8
 71
     2
 72
     7
 73
     4
 74
     0
 42
0.000000001
 43
0.0000000001
 40
0.0
 40
0.0
 40
0.0
 40
1.0
 40
2.0
 40
2.0
 40
2.0
 10
6.842382802375908
 20
32.0837261022929
 30
0.0
 10
6.842382802375908
 20
31.71905834063861
 30
0.0
 10
6.657617803137696
 20
31.12829656675867
 30
0.0
 10
6.48257727754364
 20
30.92894485705431
 30
0.0
  0
SPLINE
  5
E2B
330
D3C
100
AcDbEntity
  8
RONDO
100
AcDbSpline
210
0.0
220
0.0
230
1.0
 70
     8
 71
     2
 72
     7
 73
     4
 74
     0
 42
0.000000001
 43
0.0000000001
 40
0.0
 40
0.0
 40
0.0
 40
1.0
 40
2.0
 40
2.0
 40
2.0
 10
6.48257727754364
 20
33.24093846594251
 30
0.0
 10
6.652755566315676
 20
33.04158675623816
 30
0.0
 10
6.842382802375908
 20
32.4581183375913
 30
0.0
 10
6.842382802375908
 20
32.0837261022929
 30
0.0
  0
SPLINE
  5
E2C
330
D3C
100
AcDbEntity
  8
RONDO
100
AcDbSpline
210
0.0
220
0.0
230
1.0
 70
     8
 71
     2
 72
     7
 73
     4
 74
     0
 42
0.000000001
 43
0.0000000001
 40
0.0
 40
0.0
 40
0.0
 40
1.0
 40
2.0
 40
2.0
 40
2.0
 10
-7.155997028130599
 20
28.18482366490739
 30
0.0
 10
-7.250810646160715
 20
28.24803274359413
 30
0.0
 10
-7.503646960907673
 20
28.29908623022573
 30
0.0
 10
-7.690843078556866
 20
28.29908623022573
 30
0.0
  0
LINE
  5
E2D
330
D3C
100
AcDbEntity
  8
RONDO
100
AcDbLine
 10
-7.690843078556866
 20
28.29908623022573
 30
0.0
 11
-8.021475182456782
 21
28.29908623022573
 31
0.0
  0
LINE
  5
E2E
330
D3C
100
AcDbEntity
  8
RONDO
100
AcDbLine
 10
-8.021475182456782
 20
28.29908623022573
 30
0.0
 11
-8.021475182456782
 21
27.10297597199966
 31
0.0
  0
LINE
  5
E2F
330
D3C
100
AcDbEntity
  8
RONDO
100
AcDbLine
 10
-8.021475182456782
 20
27.10297597199966
 30
0.0
 11
-7.749189920421571
 21
27.10297597199966
 31
0.0
  0
SPLINE
  5
E30
330
D3C
100
AcDbEntity
  8
RONDO
100
AcDbSpline
210
0.0
220
0.0
230
1.0
 70
     8
 71
     2
 72
     7
 73
     4
 74
     0
 42
0.000000001
 43
0.0000000001
 40
0.0
 40
0.0
 40
0.0
 40
1.0
 40
2.0
 40
2.0
 40
2.0
 10
-7.749189920421571
 20
27.10297597199966
 30
0.0
 10
-7.506078079318712
 20
27.10297597199966
 30
0.0
 10
-7.207050514762187
 20
27.18077176115257
 30
0.0
 10
-7.109805778321032
 20
27.28287873441578
 30
0.0
  0
SPLINE
  5
E31
330
D3C
100
AcDbEntity
  8
RONDO
100
AcDbSpline
210
0.0
220
0.0
230
1.0
 70
     8
 71
     2
 72
     7
 73
     4
 74
     0
 42
0.000000001
 43
0.0000000001
 40
0.0
 40
0.0
 40
0.0
 40
1.0
 40
2.0
 40
2.0
 40
2.0
 10
-7.109805778321032
 20
27.28287873441578
 30
0.0
 10
-7.019854397112993
 20
27.37283011562383
 30
0.0
 10
-6.939627489549053
 20
27.58433741738331
 30
0.0
 10
-6.939627489549053
 20
27.72777340363402
 30
0.0
  0
SPLINE
  5
E32
330
D3C
100
AcDbEntity
  8
RONDO
100
AcDbSpline
210
0.0
220
0.0
230
1.0
 70
     8
 71
     2
 72
     7
 73
     4
 74
     0
 42
0.000000001
 43
0.0000000001
 40
0.0
 40
0.0
 40
0.0
 40
1.0
 40
2.0
 40
2.0
 40
2.0
 10
-6.939627489549053
 20
27.72777340363402
 30
0.0
 10
-6.939627489549053
 20
27.88336498193983
 30
0.0
 10
-7.046596699634307
 20
28.11189011257652
 30
0.0
 10
-7.155997028130599
 20
28.18482366490739
 30
0.0
  0
SPLINE
  5
E33
330
D3C
100
AcDbEntity
  8
RONDO
100
AcDbSpline
210
0.0
220
0.0
230
1.0
 70
     8
 71
     2
 72
     7
 73
     4
 74
     0
 42
0.000000001
 43
0.0000000001
 40
0.0
 40
0.0
 40
0.0
 40
1.0
 40
2.0
 40
2.0
 40
2.0
 10
-6.881280647684349
 20
28.45710892694258
 30
0.0
 10
-6.713533477323352
 20
28.34284636162424
 30
0.0
 10
-6.523906241263176
 20
27.99033419202509
 30
0.0
 10
-6.523906241263176
 20
27.73992899568916
 30
0.0
  0
SPLINE
  5
E34
330
D3C
100
AcDbEntity
  8
RONDO
100
AcDbSpline
210
0.0
220
0.0
230
1.0
 70
     8
 71
     2
 72
     7
 73
     4
 74
     0
 42
0.000000001
 43
0.0000000001
 40
0.0
 40
0.0
 40
0.0
 40
1.0
 40
2.0
 40
2.0
 40
2.0
 10
-7.666531894446592
 20
28.64430504459179
 30
0.0
 10
-7.399108869233458
 20
28.64430504459179
 30
0.0
 10
-7.024716633935014
 20
28.55678478179476
 30
0.0
 10
-6.881280647684349
 20
28.45710892694258
 30
0.0
  0
LINE
  5
E35
330
D3C
100
AcDbEntity
  8
RONDO
100
AcDbLine
 10
-8.420178601865444
 20
28.64430504459179
 30
0.0
 11
-7.666531894446592
 21
28.64430504459179
 31
0.0
  0
LINE
  5
E36
330
D3C
100
AcDbEntity
  8
RONDO
100
AcDbLine
 10
-8.420178601865444
 20
25.6443049253825
 30
0.0
 11
-8.420178601865444
 21
28.64430504459179
 31
0.0
  0
LINE
  5
E37
330
D3C
100
AcDbEntity
  8
RONDO
100
AcDbLine
 10
-8.021475182456782
 20
25.6443049253825
 30
0.0
 11
-8.420178601865444
 21
25.6443049253825
 31
0.0
  0
LINE
  5
E38
330
D3C
100
AcDbEntity
  8
RONDO
100
AcDbLine
 10
-8.021475182456782
 20
26.76261939445566
 30
0.0
 11
-8.021475182456782
 21
25.6443049253825
 31
0.0
  0
LINE
  5
E39
330
D3C
100
AcDbEntity
  8
RONDO
100
AcDbLine
 10
-7.683549723323807
 20
26.76261939445566
 30
0.0
 11
-8.021475182456782
 21
26.76261939445566
 31
0.0
  0
SPLINE
  5
E3A
330
D3C
100
AcDbEntity
  8
RONDO
100
AcDbSpline
210
0.0
220
0.0
230
1.0
 70
     8
 71
     2
 72
     7
 73
     4
 74
     0
 42
0.000000001
 43
0.0000000001
 40
0.0
 40
0.0
 40
0.0
 40
1.0
 40
2.0
 40
2.0
 40
2.0
 10
-6.786467029654232
 20
27.07380255106732
 30
0.0
 10
-6.942058607960092
 20
26.9206420911725
 30
0.0
 10
-7.362642093067989
 20
26.76261939445566
 30
0.0
 10
-7.683549723323807
 20
26.76261939445566
 30
0.0
  0
SPLINE
  5
E3B
330
D3C
100
AcDbEntity
  8
RONDO
100
AcDbSpline
210
0.0
220
0.0
230
1.0
 70
     8
 71
     2
 72
     7
 73
     4
 74
     0
 42
0.000000001
 43
0.0000000001
 40
0.0
 40
0.0
 40
0.0
 40
1.0
 40
2.0
 40
2.0
 40
2.0
 10
-6.523906241263176
 20
27.73992899568916
 30
0.0
 10
-6.523906241263176
 20
27.54543952280686
 30
0.0
 10
-6.662479990691764
 20
27.19535847161875
 30
0.0
 10
-6.786467029654232
 20
27.07380255106732
 30
0.0
  0
LINE
  5
E3C
330
D3C
100
AcDbEntity
  8
RONDO
100
AcDbLine
 10
-5.327795983037077
 20
28.77801655719835
 30
0.0
 11
-4.982577168671042
 21
28.77801655719835
 31
0.0
  0
LINE
  5
E3D
330
D3C
100
AcDbEntity
  8
RONDO
100
AcDbLine
 10
-6.497163938741863
 20
24.99276519122684
 30
0.0
 11
-5.327795983037077
 21
28.77801655719835
 31
0.0
  0
LINE
  5
E3E
330
D3C
100
AcDbEntity
  8
RONDO
100
AcDbLine
 10
-6.156807361197849
 20
24.99276519122684
 30
0.0
 11
-6.497163938741863
 21
24.99276519122684
 31
0.0
  0
LINE
  5
E3F
330
D3C
100
AcDbEntity
  8
RONDO
100
AcDbLine
 10
-4.982577168671042
 20
28.77801655719835
 30
0.0
 11
-6.156807361197849
 21
24.99276519122684
 31
0.0
  0
SPLINE
  5
E40
330
D3C
100
AcDbEntity
  8
RONDO
100
AcDbSpline
210
0.0
220
0.0
230
1.0
 70
     8
 71
     2
 72
     7
 73
     4
 74
     0
 42
0.000000001
 43
0.0000000001
 40
0.0
 40
0.0
 40
0.0
 40
1.0
 40
2.0
 40
2.0
 40
2.0
 10
0.5652350452962481
 20
28.26748169088235
 30
0.0
 10
0.4898703745543287
 20
28.31853517751397
 30
0.0
 10
0.3051053753161739
 20
28.35986419050144
 30
0.0
 10
0.2005672836419592
 20
28.35986419050144
 30
0.0
  0
SPLINE
  5
E41
330
D3C
100
AcDbEntity
  8
RONDO
100
AcDbSpline
210
0.0
220
0.0
230
1.0
 70
     8
 71
     2
 72
     7
 73
     4
 74
     0
 42
0.000000001
 43
0.0000000001
 40
0.0
 40
0.0
 40
0.0
 40
1.0
 40
2.0
 40
2.0
 40
2.0
 10
0.7232577420130895
 20
27.94171182380452
 30
0.0
 10
0.7232577420130895
 20
28.05597438912286
 30
0.0
 10
0.6357374792160897
 20
28.2188593226618
 30
0.0
 10
0.5652350452962481
 20
28.26748169088235
 30
0.0
  0
SPLINE
  5
E42
330
D3C
100
AcDbEntity
  8
RONDO
100
AcDbSpline
210
0.0
220
0.0
230
1.0
 70
     8
 71
     2
 72
     7
 73
     4
 74
     0
 42
0.000000001
 43
0.0000000001
 40
0.0
 40
0.0
 40
0.0
 40
1.0
 40
2.0
 40
2.0
 40
2.0
 10
0.1130470208449594
 20
27.43847031272161
 30
0.0
 10
0.3829011644690752
 20
27.43847031272161
 30
0.0
 10
0.7232577420130895
 20
27.69616886429063
 30
0.0
 10
0.7232577420130895
 20
27.94171182380452
 30
0.0
  0
LINE
  5
E43
330
D3C
100
AcDbEntity
  8
RONDO
100
AcDbLine
 10
-0.0206644917616643
 20
27.43847031272161
 30
0.0
 11
0.1130470208449594
 21
27.43847031272161
 31
0.0
  0
LINE
  5
E44
330
D3C
100
AcDbEntity
  8
RONDO
100
AcDbLine
 10
-0.0206644917616643
 20
27.10540709041068
 30
0.0
 11
-0.0206644917616643
 21
27.43847031272161
 31
0.0
  0
LINE
  5
E45
330
D3C
100
AcDbEntity
  8
RONDO
100
AcDbLine
 10
0.1495137970103144
 20
27.10540709041068
 30
0.0
 11
-0.0206644917616643
 21
27.10540709041068
 31
0.0
  0
SPLINE
  5
E46
330
D3C
100
AcDbEntity
  8
RONDO
100
AcDbSpline
210
0.0
220
0.0
230
1.0
 70
     8
 71
     2
 72
     7
 73
     4
 74
     0
 42
0.000000001
 43
0.0000000001
 40
0.0
 40
0.0
 40
0.0
 40
1.0
 40
2.0
 40
2.0
 40
2.0
 10
0.6017018214616599
 20
26.99843788032543
 30
0.0
 10
0.516612677075699
 20
27.05921584060114
 30
0.0
 10
0.285656428027977
 20
27.10540709041068
 30
0.0
 10
0.1495137970103144
 20
27.10540709041068
 30
0.0
  0
SPLINE
  5
E47
330
D3C
100
AcDbEntity
  8
RONDO
100
AcDbSpline
210
0.0
220
0.0
230
1.0
 70
     8
 71
     2
 72
     7
 73
     4
 74
     0
 42
0.000000001
 43
0.0000000001
 40
0.0
 40
0.0
 40
0.0
 40
1.0
 40
2.0
 40
2.0
 40
2.0
 10
0.7816045838777371
 20
26.56326768475131
 30
0.0
 10
0.7816045838777371
 20
26.72615261829023
 30
0.0
 10
0.6867909658476208
 20
26.93765992004971
 30
0.0
 10
0.6017018214616599
 20
26.99843788032543
 30
0.0
  0
SPLINE
  5
E48
330
D3C
100
AcDbEntity
  8
RONDO
100
AcDbSpline
210
0.0
220
0.0
230
1.0
 70
     8
 71
     2
 72
     7
 73
     4
 74
     0
 42
0.000000001
 43
0.0000000001
 40
0.0
 40
0.0
 40
0.0
 40
1.0
 40
2.0
 40
2.0
 40
2.0
 10
0.616288531927836
 20
26.09649294983382
 30
0.0
 10
0.6965154394917761
 20
26.18644433104187
 30
0.0
 10
0.7816045838777371
 20
26.40038275121239
 30
0.0
 10
0.7816045838777371
 20
26.56326768475131
 30
0.0
  0
SPLINE
  5
E49
330
D3C
100
AcDbEntity
  8
RONDO
100
AcDbSpline
210
0.0
220
0.0
230
1.0
 70
     8
 71
     2
 72
     7
 73
     4
 74
     0
 42
0.000000001
 43
0.0000000001
 40
0.0
 40
0.0
 40
0.0
 40
1.0
 40
2.0
 40
2.0
 40
2.0
 10
0.1616693890655085
 20
25.92874577947285
 30
0.0
 10
0.285656428027977
 20
25.92874577947285
 30
0.0
 10
0.533630505952857
 20
26.00654156862575
 30
0.0
 10
0.616288531927836
 20
26.09649294983382
 30
0.0
  0
SPLINE
  5
E4A
330
D3C
100
AcDbEntity
  8
RONDO
100
AcDbSpline
210
0.0
220
0.0
230
1.0
 70
     8
 71
     2
 72
     7
 73
     4
 74
     0
 42
0.000000001
 43
0.0000000001
 40
0.0
 40
0.0
 40
0.0
 40
1.0
 40
2.0
 40
2.0
 40
2.0
 10
-0.604132910408481
 20
26.19130656786393
 30
0.0
 10
-0.4777147530350306
 20
26.09892406824484
 30
0.0
 10
-0.0498379126940165
 20
25.92874577947285
 30
0.0
 10
0.1616693890655085
 20
25.92874577947285
 30
0.0
  0
LINE
  5
E4B
330
D3C
100
AcDbEntity
  8
RONDO
100
AcDbLine
 10
-0.63330633134089
 20
26.19130656786393
 30
0.0
 11
-0.604132910408481
 21
26.19130656786393
 31
0.0
  0
LINE
  5
E4C
330
D3C
100
AcDbEntity
  8
RONDO
100
AcDbLine
 10
-0.63330633134089
 20
25.76586084593393
 30
0.0
 11
-0.63330633134089
 21
26.19130656786393
 31
0.0
  0
SPLINE
  5
E4D
330
D3C
100
AcDbEntity
  8
RONDO
100
AcDbSpline
210
0.0
220
0.0
230
1.0
 70
     8
 71
     2
 72
     7
 73
     4
 74
     0
 42
0.000000001
 43
0.0000000001
 40
0.0
 40
0.0
 40
0.0
 40
1.0
 40
2.0
 40
2.0
 40
2.0
 10
0.1859805731757831
 20
25.58109584669576
 30
0.0
 10
-0.0401134390499181
 20
25.58109584669576
 30
0.0
 10
-0.4825769898571082
 20
25.69049617519204
 30
0.0
 10
-0.63330633134089
 20
25.76586084593393
 30
0.0
  0
SPLINE
  5
E4E
330
D3C
100
AcDbEntity
  8
RONDO
100
AcDbSpline
210
0.0
220
0.0
230
1.0
 70
     8
 71
     2
 72
     7
 73
     4
 74
     0
 42
0.000000001
 43
0.0000000001
 40
0.0
 40
0.0
 40
0.0
 40
1.0
 40
2.0
 40
2.0
 40
2.0
 10
0.9250405701284591
 20
25.85824334555302
 30
0.0
 10
0.7937601759329312
 20
25.72210071453542
 30
0.0
 10
0.4217990590455827
 20
25.58109584669576
 30
0.0
 10
0.1859805731757831
 20
25.58109584669576
 30
0.0
  0
SPLINE
  5
E4F
330
D3C
100
AcDbEntity
  8
RONDO
100
AcDbSpline
210
0.0
220
0.0
230
1.0
 70
     8
 71
     2
 72
     7
 73
     4
 74
     0
 42
0.000000001
 43
0.0000000001
 40
0.0
 40
0.0
 40
0.0
 40
1.0
 40
2.0
 40
2.0
 40
2.0
 10
1.190032476930554
 20
26.53409426381897
 30
0.0
 10
1.190032476930554
 20
26.3323114357036
 30
0.0
 10
1.051458727501966
 20
25.98952373974855
 30
0.0
 10
0.9250405701284591
 20
25.85824334555302
 30
0.0
  0
SPLINE
  5
E50
330
D3C
100
AcDbEntity
  8
RONDO
100
AcDbSpline
210
0.0
220
0.0
230
1.0
 70
     8
 71
     2
 72
     7
 73
     4
 74
     0
 42
0.000000001
 43
0.0000000001
 40
0.0
 40
0.0
 40
0.0
 40
1.0
 40
2.0
 40
2.0
 40
2.0
 10
0.9809562935821247
 20
27.08838926153348
 30
0.0
 10
1.073338793201202
 20
27.00330011714747
 30
0.0
 10
1.190032476930554
 20
26.73101485511229
 30
0.0
 10
1.190032476930554
 20
26.53409426381897
 30
0.0
  0
SPLINE
  5
E51
330
D3C
100
AcDbEntity
  8
RONDO
100
AcDbSpline
210
0.0
220
0.0
230
1.0
 70
     8
 71
     2
 72
     7
 73
     4
 74
     0
 42
0.000000001
 43
0.0000000001
 40
0.0
 40
0.0
 40
0.0
 40
1.0
 40
2.0
 40
2.0
 40
2.0
 10
0.5773906373513853
 20
27.28287873441578
 30
0.0
 10
0.6722042553815016
 20
27.26342978712755
 30
0.0
 10
0.8885737939630473
 20
27.17590952433052
 30
0.0
 10
0.9809562935821247
 20
27.08838926153348
 30
0.0
  0
LINE
  5
E52
330
D3C
100
AcDbEntity
  8
RONDO
100
AcDbLine
 10
0.5773906373513853
 20
27.31205215534811
 30
0.0
 11
0.5773906373513853
 21
27.28287873441578
 31
0.0
  0
SPLINE
  5
E53
330
D3C
100
AcDbEntity
  8
RONDO
100
AcDbSpline
210
0.0
220
0.0
230
1.0
 70
     8
 71
     2
 72
     7
 73
     4
 74
     0
 42
0.000000001
 43
0.0000000001
 40
0.0
 40
0.0
 40
0.0
 40
1.0
 40
2.0
 40
2.0
 40
2.0
 10
1.131685635065906
 20
27.983040836792
 30
0.0
 10
1.131685635065906
 20
27.73506675886709
 30
0.0
 10
0.8059157679880684
 20
27.36067452356869
 30
0.0
 10
0.5773906373513853
 20
27.31205215534811
 30
0.0
  0
SPLINE
  5
E54
330
D3C
100
AcDbEntity
  8
RONDO
100
AcDbSpline
210
0.0
220
0.0
230
1.0
 70
     8
 71
     2
 72
     7
 73
     4
 74
     0
 42
0.000000001
 43
0.0000000001
 40
0.0
 40
0.0
 40
0.0
 40
1.0
 40
2.0
 40
2.0
 40
2.0
 10
0.8642626098527728
 20
28.53733583450654
 30
0.0
 10
0.9955430040483008
 20
28.44252221647642
 30
0.0
 10
1.131685635065906
 20
28.16780583603018
 30
0.0
 10
1.131685635065906
 20
27.983040836792
 30
0.0
  0
SPLINE
  5
E55
330
D3C
100
AcDbEntity
  8
RONDO
100
AcDbSpline
210
0.0
220
0.0
230
1.0
 70
     8
 71
     2
 72
     7
 73
     4
 74
     0
 42
0.000000001
 43
0.0000000001
 40
0.0
 40
0.0
 40
0.0
 40
1.0
 40
2.0
 40
2.0
 40
2.0
 10
0.2321718229853502
 20
28.70751412327853
 30
0.0
 10
0.436385769511702
 20
28.70751412327853
 30
0.0
 10
0.7402755708903044
 20
28.62485609730355
 30
0.0
 10
0.8642626098527728
 20
28.53733583450654
 30
0.0
  0
SPLINE
  5
E56
330
D3C
100
AcDbEntity
  8
RONDO
100
AcDbSpline
210
0.0
220
0.0
230
1.0
 70
     8
 71
     2
 72
     7
 73
     4
 74
     0
 42
0.000000001
 43
0.0000000001
 40
0.0
 40
0.0
 40
0.0
 40
1.0
 40
2.0
 40
2.0
 40
2.0
 10
-0.5506483053658542
 20
28.52274912404038
 30
0.0
 10
-0.419367911170383
 20
28.59325155796019
 30
0.0
 10
0.0303889948699236
 20
28.70751412327853
 30
0.0
 10
0.2321718229853502
 20
28.70751412327853
 30
0.0
  0
LINE
  5
E57
330
D3C
100
AcDbEntity
  8
RONDO
100
AcDbLine
 10
-0.5506483053658542
 20
28.09730340211034
 30
0.0
 11
-0.5506483053658542
 21
28.52274912404038
 31
0.0
  0
LINE
  5
E58
330
D3C
100
AcDbEntity
  8
RONDO
100
AcDbLine
 10
-0.5263371212555797
 20
28.09730340211034
 30
0.0
 11
-0.5506483053658542
 21
28.09730340211034
 31
0.0
  0
SPLINE
  5
E59
330
D3C
100
AcDbEntity
  8
RONDO
100
AcDbSpline
210
0.0
220
0.0
230
1.0
 70
     8
 71
     2
 72
     7
 73
     4
 74
     0
 42
0.000000001
 43
0.0000000001
 40
0.0
 40
0.0
 40
0.0
 40
1.0
 40
2.0
 40
2.0
 40
2.0
 10
-0.2297406751101505
 20
28.26505057247132
 30
0.0
 10
-0.3269854115512487
 20
28.22372155948385
 30
0.0
 10
-0.4704213978019141
 20
28.13620129668682
 30
0.0
 10
-0.5263371212555797
 20
28.09730340211034
 30
0.0
  0
SPLINE
  5
E5A
330
D3C
100
AcDbEntity
  8
RONDO
100
AcDbSpline
210
0.0
220
0.0
230
1.0
 70
     8
 71
     2
 72
     7
 73
     4
 74
     0
 42
0.000000001
 43
0.0000000001
 40
0.0
 40
0.0
 40
0.0
 40
1.0
 40
2.0
 40
2.0
 40
2.0
 10
0.2005672836419592
 20
28.35986419050144
 30
0.0
 10
0.0911669551456669
 20
28.35986419050144
 30
0.0
 10
-0.125202583435879
 20
28.3063795854588
 30
0.0
 10
-0.2297406751101505
 20
28.26505057247132
 30
0.0
  0
LINE
  5
E5B
330
D3C
100
AcDbEntity
  8
RONDO
100
AcDbLine
 10
5.59278791930339
 20
25.9506258451721
 30
0.0
 11
5.59278791930339
 21
25.6443049253825
 31
0.0
  0
LINE
  5
E5C
330
D3C
100
AcDbEntity
  8
RONDO
100
AcDbLine
 10
5.060372987288104
 20
25.9506258451721
 30
0.0
 11
5.59278791930339
 21
25.9506258451721
 31
0.0
  0
LINE
  5
E5D
330
D3C
100
AcDbEntity
  8
RONDO
100
AcDbLine
 10
5.060372987288104
 20
28.6540295182359
 30
0.0
 11
5.060372987288104
 21
25.9506258451721
 31
0.0
  0
LINE
  5
E5E
330
D3C
100
AcDbEntity
  8
RONDO
100
AcDbLine
 10
4.749189830676442
 20
28.6540295182359
 30
0.0
 11
5.060372987288104
 21
28.6540295182359
 31
0.0
  0
SPLINE
  5
E5F
330
D3C
100
AcDbEntity
  8
RONDO
100
AcDbSpline
210
0.0
220
0.0
230
1.0
 70
     8
 71
     2
 72
     7
 73
     4
 74
     0
 42
0.000000001
 43
0.0000000001
 40
0.0
 40
0.0
 40
0.0
 40
1.0
 40
2.0
 40
2.0
 40
2.0
 10
4.129254635864157
 20
28.23587715153898
 30
0.0
 10
4.43800667406478
 20
28.23587715153898
 30
0.0
 10
4.729740883388188
 20
28.41091767713304
 30
0.0
 10
4.749189830676442
 20
28.6540295182359
 30
0.0
  0
LINE
  5
E60
330
D3C
100
AcDbEntity
  8
RONDO
100
AcDbLine
 10
4.129254635864157
 20
27.96116077109275
 30
0.0
 11
4.129254635864157
 21
28.23587715153898
 31
0.0
  0
LINE
  5
E61
330
D3C
100
AcDbEntity
  8
RONDO
100
AcDbLine
 10
4.67382515993458
 20
27.96116077109275
 30
0.0
 11
4.129254635864157
 21
27.96116077109275
 31
0.0
  0
LINE
  5
E62
330
D3C
100
AcDbEntity
  8
RONDO
100
AcDbLine
 10
4.67382515993458
 20
25.9506258451721
 30
0.0
 11
4.67382515993458
 21
27.96116077109275
 31
0.0
  0
LINE
  5
E63
330
D3C
100
AcDbEntity
  8
RONDO
100
AcDbLine
 10
4.129254635864157
 20
25.9506258451721
 30
0.0
 11
4.67382515993458
 21
25.9506258451721
 31
0.0
  0
LINE
  5
E64
330
D3C
100
AcDbEntity
  8
RONDO
100
AcDbLine
 10
4.129254635864157
 20
25.6443049253825
 30
0.0
 11
4.129254635864157
 21
25.9506258451721
 31
0.0
  0
LINE
  5
E65
330
D3C
100
AcDbEntity
  8
RONDO
100
AcDbLine
 10
5.59278791930339
 20
25.6443049253825
 30
0.0
 11
4.129254635864157
 21
25.6443049253825
 31
0.0
  0
SPLINE
  5
E66
330
D3C
100
AcDbEntity
  8
RONDO
100
AcDbSpline
210
0.0
220
0.0
230
1.0
 70
     8
 71
     2
 72
     7
 73
     4
 74
     0
 42
0.000000001
 43
0.0000000001
 40
0.0
 40
0.0
 40
0.0
 40
1.0
 40
2.0
 40
2.0
 40
2.0
 10
-36.78776372047068
 20
-1.500000076834112
 30
0.0
 10
-36.78776372047068
 20
-1.19124803863346
 30
0.0
 10
-36.83638608869129
 20
-0.7366288957711192
 30
0.0
 10
-36.89716404896697
 20
-0.5834684358763127
 30
0.0
  0
SPLINE
  5
E67
330
D3C
100
AcDbEntity
  8
RONDO
100
AcDbSpline
210
0.0
220
0.0
230
1.0
 70
     8
 71
     2
 72
     7
 73
     4
 74
     0
 42
0.000000001
 43
0.0000000001
 40
0.0
 40
0.0
 40
0.0
 40
1.0
 40
2.0
 40
2.0
 40
2.0
 10
-36.89716404896697
 20
-0.5834684358763127
 30
0.0
 10
-36.95794200924266
 20
-0.4303079759815205
 30
0.0
 10
-37.16944931100218
 20
-0.2722852792646648
 30
0.0
 10
-37.33719648136312
 20
-0.2722852792646648
 30
0.0
  0
SPLINE
  5
E68
330
D3C
100
AcDbEntity
  8
RONDO
100
AcDbSpline
210
0.0
220
0.0
230
1.0
 70
     8
 71
     2
 72
     7
 73
     4
 74
     0
 42
0.000000001
 43
0.0000000001
 40
0.0
 40
0.0
 40
0.0
 40
1.0
 40
2.0
 40
2.0
 40
2.0
 10
-37.33719648136312
 20
-0.2722852792646648
 30
0.0
 10
-37.50494365172406
 20
-0.2722852792646648
 30
0.0
 10
-37.72131319030567
 20
-0.4303079759815205
 30
0.0
 10
-37.78452226899239
 20
-0.5883306726983762
 30
0.0
  0
SPLINE
  5
E69
330
D3C
100
AcDbEntity
  8
RONDO
100
AcDbSpline
210
0.0
220
0.0
230
1.0
 70
     8
 71
     2
 72
     7
 73
     4
 74
     0
 42
0.000000001
 43
0.0000000001
 40
0.0
 40
0.0
 40
0.0
 40
1.0
 40
2.0
 40
2.0
 40
2.0
 10
-37.78452226899239
 20
-0.5883306726983762
 30
0.0
 10
-37.84530022926813
 20
-0.7414911325931826
 30
0.0
 10
-37.88906036066661
 20
-1.208265867510675
 30
0.0
 10
-37.88906036066661
 20
-1.502431195245122
 30
0.0
  0
SPLINE
  5
E6A
330
D3C
100
AcDbEntity
  8
RONDO
100
AcDbSpline
210
0.0
220
0.0
230
1.0
 70
     8
 71
     2
 72
     7
 73
     4
 74
     0
 42
0.000000001
 43
0.0000000001
 40
0.0
 40
0.0
 40
0.0
 40
1.0
 40
2.0
 40
2.0
 40
2.0
 10
-37.88906036066661
 20
-1.502431195245122
 30
0.0
 10
-37.88906036066661
 20
-1.818476588678848
 30
0.0
 10
-37.85016246609016
 20
-2.241491192197827
 30
0.0
 10
-37.78695338740343
 20
-2.406807244147771
 30
0.0
  0
SPLINE
  5
E6B
330
D3C
100
AcDbEntity
  8
RONDO
100
AcDbSpline
210
0.0
220
0.0
230
1.0
 70
     8
 71
     2
 72
     7
 73
     4
 74
     0
 42
0.000000001
 43
0.0000000001
 40
0.0
 40
0.0
 40
0.0
 40
1.0
 40
2.0
 40
2.0
 40
2.0
 10
-37.78695338740343
 20
-2.406807244147771
 30
0.0
 10
-37.72860654553872
 20
-2.562398822453602
 30
0.0
 10
-37.51223700695718
 20
-2.73014599281457
 30
0.0
 10
-37.33719648136312
 20
-2.73014599281457
 30
0.0
  0
SPLINE
  5
E6C
330
D3C
100
AcDbEntity
  8
RONDO
100
AcDbSpline
210
0.0
220
0.0
230
1.0
 70
     8
 71
     2
 72
     7
 73
     4
 74
     0
 42
0.000000001
 43
0.0000000001
 40
0.0
 40
0.0
 40
0.0
 40
1.0
 40
2.0
 40
2.0
 40
2.0
 10
-37.33719648136312
 20
-2.73014599281457
 30
0.0
 10
-37.17188042941316
 20
-2.73014599281457
 30
0.0
 10
-36.95551089083167
 20
-2.572123296097714
 30
0.0
 10
-36.89473293055594
 20
-2.414100599380859
 30
0.0
  0
SPLINE
  5
E6D
330
D3C
100
AcDbEntity
  8
RONDO
100
AcDbSpline
210
0.0
220
0.0
230
1.0
 70
     8
 71
     2
 72
     7
 73
     4
 74
     0
 42
0.000000001
 43
0.0000000001
 40
0.0
 40
0.0
 40
0.0
 40
1.0
 40
2.0
 40
2.0
 40
2.0
 10
-36.89473293055594
 20
-2.414100599380859
 30
0.0
 10
-36.83638608869129
 20
-2.265802376308116
 30
0.0
 10
-36.78776372047068
 20
-1.808752115034749
 30
0.0
 10
-36.78776372047068
 20
-1.500000076834112
 30
0.0
  0
SPLINE
  5
E6E
330
D3C
100
AcDbEntity
  8
RONDO
100
AcDbSpline
210
0.0
220
0.0
230
1.0
 70
     8
 71
     2
 72
     7
 73
     4
 74
     0
 42
0.000000001
 43
0.0000000001
 40
0.0
 40
0.0
 40
0.0
 40
1.0
 40
2.0
 40
2.0
 40
2.0
 10
-37.33719648136312
 20
0.0607779430462614
 30
0.0
 10
-36.84367944392434
 20
0.0607779430462614
 30
0.0
 10
-36.37933582741786
 20
-0.7171799484828938
 30
0.0
 10
-36.37933582741786
 20
-1.500000076834112
 30
0.0
  0
SPLINE
  5
E6F
330
D3C
100
AcDbEntity
  8
RONDO
100
AcDbSpline
210
0.0
220
0.0
230
1.0
 70
     8
 71
     2
 72
     7
 73
     4
 74
     0
 42
0.000000001
 43
0.0000000001
 40
0.0
 40
0.0
 40
0.0
 40
1.0
 40
2.0
 40
2.0
 40
2.0
 10
-38.29748825371942
 20
-1.502431195245122
 30
0.0
 10
-38.29748825371942
 20
-0.6904376459615805
 30
0.0
 10
-37.82828240039092
 20
0.0607779430462614
 30
0.0
 10
-37.33719648136312
 20
0.0607779430462614
 30
0.0
  0
SPLINE
  5
E70
330
D3C
100
AcDbEntity
  8
RONDO
100
AcDbSpline
210
0.0
220
0.0
230
1.0
 70
     8
 71
     2
 72
     7
 73
     4
 74
     0
 42
0.000000001
 43
0.0000000001
 40
0.0
 40
0.0
 40
0.0
 40
1.0
 40
2.0
 40
2.0
 40
2.0
 10
-37.33719648136312
 20
-3.063209215125496
 30
0.0
 10
-37.833144637213
 20
-3.063209215125496
 30
0.0
 10
-38.29748825371942
 20
-2.292544678829415
 30
0.0
 10
-38.29748825371942
 20
-1.502431195245122
 30
0.0
  0
SPLINE
  5
E71
330
D3C
100
AcDbEntity
  8
RONDO
100
AcDbSpline
210
0.0
220
0.0
230
1.0
 70
     8
 71
     2
 72
     7
 73
     4
 74
     0
 42
0.000000001
 43
0.0000000001
 40
0.0
 40
0.0
 40
0.0
 40
1.0
 40
2.0
 40
2.0
 40
2.0
 10
-36.37933582741786
 20
-1.500000076834112
 30
0.0
 10
-36.37933582741786
 20
-2.307131389295605
 30
0.0
 10
-36.84854168074636
 20
-3.063209215125496
 30
0.0
 10
-37.33719648136312
 20
-3.063209215125496
 30
0.0
  0
SPLINE
  5
E72
330
D3C
100
AcDbEntity
  8
RONDO
100
AcDbSpline
210
0.0
220
0.0
230
1.0
 70
     8
 71
     2
 72
     7
 73
     4
 74
     0
 42
0.000000001
 43
0.0000000001
 40
0.0
 40
0.0
 40
0.0
 40
1.0
 40
2.0
 40
2.0
 40
2.0
 10
-34.82098892594851
 20
-0.3768233709388795
 30
0.0
 10
-34.89635359669043
 20
-0.3257698843072916
 30
0.0
 10
-35.08111859592859
 20
-0.2844408713198021
 30
0.0
 10
-35.1856566876028
 20
-0.2844408713198021
 30
0.0
  0
SPLINE
  5
E73
330
D3C
100
AcDbEntity
  8
RONDO
100
AcDbSpline
210
0.0
220
0.0
230
1.0
 70
     8
 71
     2
 72
     7
 73
     4
 74
     0
 42
0.000000001
 43
0.0000000001
 40
0.0
 40
0.0
 40
0.0
 40
1.0
 40
2.0
 40
2.0
 40
2.0
 10
-34.66296622923167
 20
-0.7025932380167319
 30
0.0
 10
-34.66296622923167
 20
-0.5883306726983762
 30
0.0
 10
-34.75048649202873
 20
-0.4254457391594713
 30
0.0
 10
-34.82098892594851
 20
-0.3768233709388795
 30
0.0
  0
SPLINE
  5
E74
330
D3C
100
AcDbEntity
  8
RONDO
100
AcDbSpline
210
0.0
220
0.0
230
1.0
 70
     8
 71
     2
 72
     7
 73
     4
 74
     0
 42
0.000000001
 43
0.0000000001
 40
0.0
 40
0.0
 40
0.0
 40
1.0
 40
2.0
 40
2.0
 40
2.0
 10
-35.27317695039986
 20
-1.205834749099651
 30
0.0
 10
-35.00332280677568
 20
-1.205834749099651
 30
0.0
 10
-34.66296622923167
 20
-0.9481361975306157
 30
0.0
 10
-34.66296622923167
 20
-0.7025932380167319
 30
0.0
  0
LINE
  5
E75
330
D3C
100
AcDbEntity
  8
RONDO
100
AcDbLine
 10
-35.40688846300643
 20
-1.205834749099651
 30
0.0
 11
-35.27317695039986
 21
-1.205834749099651
 31
0.0
  0
LINE
  5
E76
330
D3C
100
AcDbEntity
  8
RONDO
100
AcDbLine
 10
-35.40688846300643
 20
-1.538897971410563
 30
0.0
 11
-35.40688846300643
 21
-1.205834749099651
 31
0.0
  0
LINE
  5
E77
330
D3C
100
AcDbEntity
  8
RONDO
100
AcDbLine
 10
-35.23671017423445
 20
-1.538897971410563
 30
0.0
 11
-35.40688846300643
 21
-1.538897971410563
 31
0.0
  0
SPLINE
  5
E78
330
D3C
100
AcDbEntity
  8
RONDO
100
AcDbSpline
210
0.0
220
0.0
230
1.0
 70
     8
 71
     2
 72
     7
 73
     4
 74
     0
 42
0.000000001
 43
0.0000000001
 40
0.0
 40
0.0
 40
0.0
 40
1.0
 40
2.0
 40
2.0
 40
2.0
 10
-34.7845221497831
 20
-1.645867181495816
 30
0.0
 10
-34.86961129416912
 20
-1.585089221220101
 30
0.0
 10
-35.10056754321684
 20
-1.538897971410563
 30
0.0
 10
-35.23671017423445
 20
-1.538897971410563
 30
0.0
  0
SPLINE
  5
E79
330
D3C
100
AcDbEntity
  8
RONDO
100
AcDbSpline
210
0.0
220
0.0
230
1.0
 70
     8
 71
     2
 72
     7
 73
     4
 74
     0
 42
0.000000001
 43
0.0000000001
 40
0.0
 40
0.0
 40
0.0
 40
1.0
 40
2.0
 40
2.0
 40
2.0
 10
-34.60461938736703
 20
-2.081037377069932
 30
0.0
 10
-34.60461938736703
 20
-1.918152443531027
 30
0.0
 10
-34.69943300539708
 20
-1.706645141771517
 30
0.0
 10
-34.7845221497831
 20
-1.645867181495816
 30
0.0
  0
SPLINE
  5
E7A
330
D3C
100
AcDbEntity
  8
RONDO
100
AcDbSpline
210
0.0
220
0.0
230
1.0
 70
     8
 71
     2
 72
     7
 73
     4
 74
     0
 42
0.000000001
 43
0.0000000001
 40
0.0
 40
0.0
 40
0.0
 40
1.0
 40
2.0
 40
2.0
 40
2.0
 10
-34.76993543931693
 20
-2.547812111987425
 30
0.0
 10
-34.68970853175298
 20
-2.457860730779373
 30
0.0
 10
-34.60461938736703
 20
-2.243922310608851
 30
0.0
 10
-34.60461938736703
 20
-2.081037377069932
 30
0.0
  0
SPLINE
  5
E7B
330
D3C
100
AcDbEntity
  8
RONDO
100
AcDbSpline
210
0.0
220
0.0
230
1.0
 70
     8
 71
     2
 72
     7
 73
     4
 74
     0
 42
0.000000001
 43
0.0000000001
 40
0.0
 40
0.0
 40
0.0
 40
1.0
 40
2.0
 40
2.0
 40
2.0
 10
-35.22455458217931
 20
-2.715559282348408
 30
0.0
 10
-35.10056754321684
 20
-2.715559282348408
 30
0.0
 10
-34.8525934652919
 20
-2.637763493195492
 30
0.0
 10
-34.76993543931693
 20
-2.547812111987425
 30
0.0
  0
SPLINE
  5
E7C
330
D3C
100
AcDbEntity
  8
RONDO
100
AcDbSpline
210
0.0
220
0.0
230
1.0
 70
     8
 71
     2
 72
     7
 73
     4
 74
     0
 42
0.000000001
 43
0.0000000001
 40
0.0
 40
0.0
 40
0.0
 40
1.0
 40
2.0
 40
2.0
 40
2.0
 10
-35.9903568816533
 20
-2.452998493957309
 30
0.0
 10
-35.86393872427979
 20
-2.545380993576401
 30
0.0
 10
-35.43606188393878
 20
-2.715559282348408
 30
0.0
 10
-35.22455458217931
 20
-2.715559282348408
 30
0.0
  0
LINE
  5
E7D
330
D3C
100
AcDbEntity
  8
RONDO
100
AcDbLine
 10
-36.01953030258565
 20
-2.452998493957309
 30
0.0
 11
-35.9903568816533
 21
-2.452998493957309
 31
0.0
  0
LINE
  5
E7E
330
D3C
100
AcDbEntity
  8
RONDO
100
AcDbLine
 10
-36.01953030258565
 20
-2.878444215887313
 30
0.0
 11
-36.01953030258565
 21
-2.452998493957309
 31
0.0
  0
SPLINE
  5
E7F
330
D3C
100
AcDbEntity
  8
RONDO
100
AcDbSpline
210
0.0
220
0.0
230
1.0
 70
     8
 71
     2
 72
     7
 73
     4
 74
     0
 42
0.000000001
 43
0.0000000001
 40
0.0
 40
0.0
 40
0.0
 40
1.0
 40
2.0
 40
2.0
 40
2.0
 10
-35.20024339806898
 20
-3.063209215125496
 30
0.0
 10
-35.42633741029462
 20
-3.063209215125496
 30
0.0
 10
-35.86880096110187
 20
-2.953808886629204
 30
0.0
 10
-36.01953030258565
 20
-2.878444215887313
 30
0.0
  0
SPLINE
  5
E80
330
D3C
100
AcDbEntity
  8
RONDO
100
AcDbSpline
210
0.0
220
0.0
230
1.0
 70
     8
 71
     2
 72
     7
 73
     4
 74
     0
 42
0.000000001
 43
0.0000000001
 40
0.0
 40
0.0
 40
0.0
 40
1.0
 40
2.0
 40
2.0
 40
2.0
 10
-34.4611834011163
 20
-2.786061716268221
 30
0.0
 10
-34.59246379531183
 20
-2.922204347285841
 30
0.0
 10
-34.96442491219923
 20
-3.063209215125496
 30
0.0
 10
-35.20024339806898
 20
-3.063209215125496
 30
0.0
  0
SPLINE
  5
E81
330
D3C
100
AcDbEntity
  8
RONDO
100
AcDbSpline
210
0.0
220
0.0
230
1.0
 70
     8
 71
     2
 72
     7
 73
     4
 74
     0
 42
0.000000001
 43
0.0000000001
 40
0.0
 40
0.0
 40
0.0
 40
1.0
 40
2.0
 40
2.0
 40
2.0
 10
-34.19619149431415
 20
-2.110210798002285
 30
0.0
 10
-34.19619149431415
 20
-2.311993626117654
 30
0.0
 10
-34.33476524374285
 20
-2.654781322072679
 30
0.0
 10
-34.4611834011163
 20
-2.786061716268221
 30
0.0
  0
SPLINE
  5
E82
330
D3C
100
AcDbEntity
  8
RONDO
100
AcDbSpline
210
0.0
220
0.0
230
1.0
 70
     8
 71
     2
 72
     7
 73
     4
 74
     0
 42
0.000000001
 43
0.0000000001
 40
0.0
 40
0.0
 40
0.0
 40
1.0
 40
2.0
 40
2.0
 40
2.0
 10
-34.40526767766269
 20
-1.555915800287763
 30
0.0
 10
-34.31288517804356
 20
-1.641004944673767
 30
0.0
 10
-34.19619149431415
 20
-1.913290206708964
 30
0.0
 10
-34.19619149431415
 20
-2.110210798002285
 30
0.0
  0
SPLINE
  5
E83
330
D3C
100
AcDbEntity
  8
RONDO
100
AcDbSpline
210
0.0
220
0.0
230
1.0
 70
     8
 71
     2
 72
     7
 73
     4
 74
     0
 42
0.000000001
 43
0.0000000001
 40
0.0
 40
0.0
 40
0.0
 40
1.0
 40
2.0
 40
2.0
 40
2.0
 10
-34.80883333389338
 20
-1.361426327405467
 30
0.0
 10
-34.71401971586326
 20
-1.380875274693693
 30
0.0
 10
-34.49765017728172
 20
-1.468395537490735
 30
0.0
 10
-34.40526767766269
 20
-1.555915800287763
 30
0.0
  0
LINE
  5
E84
330
D3C
100
AcDbEntity
  8
RONDO
100
AcDbLine
 10
-34.80883333389343
 20
-1.332252906473129
 30
0.0
 11
-34.80883333389338
 21
-1.361426327405467
 31
0.0
  0
SPLINE
  5
E85
330
D3C
100
AcDbEntity
  8
RONDO
100
AcDbSpline
210
0.0
220
0.0
230
1.0
 70
     8
 71
     2
 72
     7
 73
     4
 74
     0
 42
0.000000001
 43
0.0000000001
 40
0.0
 40
0.0
 40
0.0
 40
1.0
 40
2.0
 40
2.0
 40
2.0
 10
-34.25453833617885
 20
-0.6612642250292283
 30
0.0
 10
-34.25453833617885
 20
-0.909238302954165
 30
0.0
 10
-34.58030820325669
 20
-1.283630538252552
 30
0.0
 10
-34.80883333389338
 20
-1.332252906473129
 30
0.0
  0
SPLINE
  5
E86
330
D3C
100
AcDbEntity
  8
RONDO
100
AcDbSpline
210
0.0
220
0.0
230
1.0
 70
     8
 71
     2
 72
     7
 73
     4
 74
     0
 42
0.000000001
 43
0.0000000001
 40
0.0
 40
0.0
 40
0.0
 40
1.0
 40
2.0
 40
2.0
 40
2.0
 10
-34.52196136139199
 20
-0.1069692273147069
 30
0.0
 10
-34.39068096719646
 20
-0.2017828453448232
 30
0.0
 10
-34.25453833617885
 20
-0.4764992257910592
 30
0.0
 10
-34.25453833617885
 20
-0.6612642250292283
 30
0.0
  0
SPLINE
  5
E87
330
D3C
100
AcDbEntity
  8
RONDO
100
AcDbSpline
210
0.0
220
0.0
230
1.0
 70
     8
 71
     2
 72
     7
 73
     4
 74
     0
 42
0.000000001
 43
0.0000000001
 40
0.0
 40
0.0
 40
0.0
 40
1.0
 40
2.0
 40
2.0
 40
2.0
 10
-35.15405214825947
 20
0.063209061457286
 30
0.0
 10
-34.94983820173306
 20
0.063209061457286
 30
0.0
 10
-34.64594840035446
 20
-0.019448964517693
 30
0.0
 10
-34.52196136139199
 20
-0.1069692273147069
 30
0.0
  0
SPLINE
  5
E88
330
D3C
100
AcDbEntity
  8
RONDO
100
AcDbSpline
210
0.0
220
0.0
230
1.0
 70
     8
 71
     2
 72
     7
 73
     4
 74
     0
 42
0.000000001
 43
0.0000000001
 40
0.0
 40
0.0
 40
0.0
 40
1.0
 40
2.0
 40
2.0
 40
2.0
 10
-35.93687227661067
 20
-0.1215559377808972
 30
0.0
 10
-35.80559188241509
 20
-0.0510535038610556
 30
0.0
 10
-35.35583497637484
 20
0.063209061457286
 30
0.0
 10
-35.15405214825947
 20
0.063209061457286
 30
0.0
  0
LINE
  5
E89
330
D3C
100
AcDbEntity
  8
RONDO
100
AcDbLine
 10
-35.93687227661067
 20
-0.5470016597108867
 30
0.0
 11
-35.93687227661067
 21
-0.1215559377808972
 31
0.0
  0
LINE
  5
E8A
330
D3C
100
AcDbEntity
  8
RONDO
100
AcDbLine
 10
-35.9125610925004
 20
-0.5470016597108867
 30
0.0
 11
-35.93687227661067
 21
-0.5470016597108867
 31
0.0
  0
SPLINE
  5
E8B
330
D3C
100
AcDbEntity
  8
RONDO
100
AcDbSpline
210
0.0
220
0.0
230
1.0
 70
     8
 71
     2
 72
     7
 73
     4
 74
     0
 42
0.000000001
 43
0.0000000001
 40
0.0
 40
0.0
 40
0.0
 40
1.0
 40
2.0
 40
2.0
 40
2.0
 10
-35.61596464635485
 20
-0.3792544893499183
 30
0.0
 10
-35.71320938279601
 20
-0.4205835023374079
 30
0.0
 10
-35.85664536904673
 20
-0.508103765134436
 30
0.0
 10
-35.9125610925004
 20
-0.5470016597108867
 30
0.0
  0
SPLINE
  5
E8C
330
D3C
100
AcDbEntity
  8
RONDO
100
AcDbSpline
210
0.0
220
0.0
230
1.0
 70
     8
 71
     2
 72
     7
 73
     4
 74
     0
 42
0.000000001
 43
0.0000000001
 40
0.0
 40
0.0
 40
0.0
 40
1.0
 40
2.0
 40
2.0
 40
2.0
 10
-35.1856566876028
 20
-0.2844408713198021
 30
0.0
 10
-35.2950570160991
 20
-0.2844408713198021
 30
0.0
 10
-35.51142655468064
 20
-0.3379254763624289
 30
0.0
 10
-35.61596464635485
 20
-0.3792544893499183
 30
0.0
  0
LINE
  5
E8D
330
D3C
100
AcDbEntity
  8
RONDO
100
AcDbLine
 10
-38.99708299777885
 20
-9.813679216649134
 30
0.0
 11
-38.99708299777885
 21
-10.12000013643873
 31
0.0
  0
LINE
  5
E8E
330
D3C
100
AcDbEntity
  8
RONDO
100
AcDbLine
 10
-39.52949792979408
 20
-9.813679216649134
 30
0.0
 11
-38.99708299777885
 21
-9.813679216649134
 31
0.0
  0
LINE
  5
E8F
330
D3C
100
AcDbEntity
  8
RONDO
100
AcDbLine
 10
-39.52949792979408
 20
-7.110275543585331
 30
0.0
 11
-39.52949792979408
 21
-9.813679216649134
 31
0.0
  0
LINE
  5
E90
330
D3C
100
AcDbEntity
  8
RONDO
100
AcDbLine
 10
-39.84068108640574
 20
-7.110275543585331
 30
0.0
 11
-39.52949792979408
 21
-7.110275543585331
 31
0.0
  0
SPLINE
  5
E91
330
D3C
100
AcDbEntity
  8
RONDO
100
AcDbSpline
210
0.0
220
0.0
230
1.0
 70
     8
 71
     2
 72
     7
 73
     4
 74
     0
 42
0.000000001
 43
0.0000000001
 40
0.0
 40
0.0
 40
0.0
 40
1.0
 40
2.0
 40
2.0
 40
2.0
 10
-40.46061628121802
 20
-7.528427910282246
 30
0.0
 10
-40.1518642430174
 20
-7.528427910282246
 30
0.0
 10
-39.86013003369399
 20
-7.35338738468819
 30
0.0
 10
-39.84068108640574
 20
-7.110275543585331
 30
0.0
  0
LINE
  5
E92
330
D3C
100
AcDbEntity
  8
RONDO
100
AcDbLine
 10
-40.46061628121802
 20
-7.803144290728482
 30
0.0
 11
-40.46061628121802
 21
-7.528427910282246
 31
0.0
  0
LINE
  5
E93
330
D3C
100
AcDbEntity
  8
RONDO
100
AcDbLine
 10
-39.9160457571476
 20
-7.803144290728482
 30
0.0
 11
-40.46061628121802
 21
-7.803144290728482
 31
0.0
  0
LINE
  5
E94
330
D3C
100
AcDbEntity
  8
RONDO
100
AcDbLine
 10
-39.9160457571476
 20
-9.813679216649134
 30
0.0
 11
-39.9160457571476
 21
-7.803144290728482
 31
0.0
  0
LINE
  5
E95
330
D3C
100
AcDbEntity
  8
RONDO
100
AcDbLine
 10
-40.46061628121802
 20
-9.813679216649134
 30
0.0
 11
-39.9160457571476
 21
-9.813679216649134
 31
0.0
  0
LINE
  5
E96
330
D3C
100
AcDbEntity
  8
RONDO
100
AcDbLine
 10
-40.46061628121802
 20
-10.12000013643873
 30
0.0
 11
-40.46061628121802
 21
-9.813679216649134
 31
0.0
  0
LINE
  5
E97
330
D3C
100
AcDbEntity
  8
RONDO
100
AcDbLine
 10
-38.99708299777885
 20
-10.12000013643873
 30
0.0
 11
-40.46061628121802
 21
-10.12000013643873
 31
0.0
  0
SPLINE
  5
E98
330
D3C
100
AcDbEntity
  8
RONDO
100
AcDbSpline
210
0.0
220
0.0
230
1.0
 70
     8
 71
     2
 72
     7
 73
     4
 74
     0
 42
0.000000001
 43
0.0000000001
 40
0.0
 40
0.0
 40
0.0
 40
1.0
 40
2.0
 40
2.0
 40
2.0
 10
37.89149109749198
 20
-1.500000076834098
 30
0.0
 10
37.89149109749198
 20
-1.19124803863346
 30
0.0
 10
37.84286872927137
 20
-0.7366288957711049
 30
0.0
 10
37.78209076899569
 20
-0.5834684358763127
 30
0.0
  0
SPLINE
  5
E99
330
D3C
100
AcDbEntity
  8
RONDO
100
AcDbSpline
210
0.0
220
0.0
230
1.0
 70
     8
 71
     2
 72
     7
 73
     4
 74
     0
 42
0.000000001
 43
0.0000000001
 40
0.0
 40
0.0
 40
0.0
 40
1.0
 40
2.0
 40
2.0
 40
2.0
 10
37.78209076899569
 20
-0.5834684358763127
 30
0.0
 10
37.72131280871994
 20
-0.4303079759815063
 30
0.0
 10
37.50980550696048
 20
-0.2722852792646648
 30
0.0
 10
37.34205833659948
 20
-0.2722852792646648
 30
0.0
  0
SPLINE
  5
E9A
330
D3C
100
AcDbEntity
  8
RONDO
100
AcDbSpline
210
0.0
220
0.0
230
1.0
 70
     8
 71
     2
 72
     7
 73
     4
 74
     0
 42
0.000000001
 43
0.0000000001
 40
0.0
 40
0.0
 40
0.0
 40
1.0
 40
2.0
 40
2.0
 40
2.0
 10
37.34205833659948
 20
-0.2722852792646648
 30
0.0
 10
37.17431116623854
 20
-0.2722852792646648
 30
0.0
 10
36.95794162765699
 20
-0.4303079759815063
 30
0.0
 10
36.89473254897021
 20
-0.5883306726983762
 30
0.0
  0
SPLINE
  5
E9B
330
D3C
100
AcDbEntity
  8
RONDO
100
AcDbSpline
210
0.0
220
0.0
230
1.0
 70
     8
 71
     2
 72
     7
 73
     4
 74
     0
 42
0.000000001
 43
0.0000000001
 40
0.0
 40
0.0
 40
0.0
 40
1.0
 40
2.0
 40
2.0
 40
2.0
 10
36.89473254897021
 20
-0.5883306726983762
 30
0.0
 10
36.83395458869453
 20
-0.7414911325931684
 30
0.0
 10
36.790194457296
 20
-1.208265867510661
 30
0.0
 10
36.790194457296
 20
-1.502431195245122
 30
0.0
  0
SPLINE
  5
E9C
330
D3C
100
AcDbEntity
  8
RONDO
100
AcDbSpline
210
0.0
220
0.0
230
1.0
 70
     8
 71
     2
 72
     7
 73
     4
 74
     0
 42
0.000000001
 43
0.0000000001
 40
0.0
 40
0.0
 40
0.0
 40
1.0
 40
2.0
 40
2.0
 40
2.0
 10
36.790194457296
 20
-1.502431195245122
 30
0.0
 10
36.790194457296
 20
-1.818476588678834
 30
0.0
 10
36.82909235187245
 20
-2.241491192197813
 30
0.0
 10
36.89230143055923
 20
-2.406807244147756
 30
0.0
  0
SPLINE
  5
E9D
330
D3C
100
AcDbEntity
  8
RONDO
100
AcDbSpline
210
0.0
220
0.0
230
1.0
 70
     8
 71
     2
 72
     7
 73
     4
 74
     0
 42
0.000000001
 43
0.0000000001
 40
0.0
 40
0.0
 40
0.0
 40
1.0
 40
2.0
 40
2.0
 40
2.0
 10
36.89230143055923
 20
-2.406807244147756
 30
0.0
 10
36.95064827242388
 20
-2.562398822453602
 30
0.0
 10
37.16701781100548
 20
-2.730145992814556
 30
0.0
 10
37.34205833659948
 20
-2.730145992814556
 30
0.0
  0
SPLINE
  5
E9E
330
D3C
100
AcDbEntity
  8
RONDO
100
AcDbSpline
210
0.0
220
0.0
230
1.0
 70
     8
 71
     2
 72
     7
 73
     4
 74
     0
 42
0.000000001
 43
0.0000000001
 40
0.0
 40
0.0
 40
0.0
 40
1.0
 40
2.0
 40
2.0
 40
2.0
 10
37.34205833659948
 20
-2.730145992814556
 30
0.0
 10
37.50737438854944
 20
-2.730145992814556
 30
0.0
 10
37.72374392713104
 20
-2.572123296097714
 30
0.0
 10
37.78452188740673
 20
-2.414100599380844
 30
0.0
  0
SPLINE
  5
E9F
330
D3C
100
AcDbEntity
  8
RONDO
100
AcDbSpline
210
0.0
220
0.0
230
1.0
 70
     8
 71
     2
 72
     7
 73
     4
 74
     0
 42
0.000000001
 43
0.0000000001
 40
0.0
 40
0.0
 40
0.0
 40
1.0
 40
2.0
 40
2.0
 40
2.0
 10
37.78452188740673
 20
-2.414100599380844
 30
0.0
 10
37.84286872927137
 20
-2.265802376308116
 30
0.0
 10
37.89149109749198
 20
-1.808752115034721
 30
0.0
 10
37.89149109749198
 20
-1.500000076834098
 30
0.0
  0
SPLINE
  5
EA0
330
D3C
100
AcDbEntity
  8
RONDO
100
AcDbSpline
210
0.0
220
0.0
230
1.0
 70
     8
 71
     2
 72
     7
 73
     4
 74
     0
 42
0.000000001
 43
0.0000000001
 40
0.0
 40
0.0
 40
0.0
 40
1.0
 40
2.0
 40
2.0
 40
2.0
 10
37.34205833659948
 20
0.0607779430462756
 30
0.0
 10
37.83557537403826
 20
0.0607779430462756
 30
0.0
 10
38.29991899054474
 20
-0.7171799484828796
 30
0.0
 10
38.29991899054474
 20
-1.500000076834098
 30
0.0
  0
SPLINE
  5
EA1
330
D3C
100
AcDbEntity
  8
RONDO
100
AcDbSpline
210
0.0
220
0.0
230
1.0
 70
     8
 71
     2
 72
     7
 73
     4
 74
     0
 42
0.000000001
 43
0.0000000001
 40
0.0
 40
0.0
 40
0.0
 40
1.0
 40
2.0
 40
2.0
 40
2.0
 10
36.38176656424318
 20
-1.502431195245122
 30
0.0
 10
36.38176656424318
 20
-0.6904376459615805
 30
0.0
 10
36.85097241757174
 20
0.0607779430462756
 30
0.0
 10
37.34205833659948
 20
0.0607779430462756
 30
0.0
  0
SPLINE
  5
EA2
330
D3C
100
AcDbEntity
  8
RONDO
100
AcDbSpline
210
0.0
220
0.0
230
1.0
 70
     8
 71
     2
 72
     7
 73
     4
 74
     0
 42
0.000000001
 43
0.0000000001
 40
0.0
 40
0.0
 40
0.0
 40
1.0
 40
2.0
 40
2.0
 40
2.0
 10
37.34205833659948
 20
-3.063209215125496
 30
0.0
 10
36.84611018074966
 20
-3.063209215125496
 30
0.0
 10
36.38176656424318
 20
-2.292544678829415
 30
0.0
 10
36.38176656424318
 20
-1.502431195245122
 30
0.0
  0
SPLINE
  5
EA3
330
D3C
100
AcDbEntity
  8
RONDO
100
AcDbSpline
210
0.0
220
0.0
230
1.0
 70
     8
 71
     2
 72
     7
 73
     4
 74
     0
 42
0.000000001
 43
0.0000000001
 40
0.0
 40
0.0
 40
0.0
 40
1.0
 40
2.0
 40
2.0
 40
2.0
 10
38.29991899054474
 20
-1.500000076834098
 30
0.0
 10
38.29991899054474
 20
-2.307131389295591
 30
0.0
 10
37.8307131372163
 20
-3.063209215125496
 30
0.0
 10
37.34205833659948
 20
-3.063209215125496
 30
0.0
  0
SPLINE
  5
EA4
330
D3C
100
AcDbEntity
  8
RONDO
100
AcDbSpline
210
0.0
220
0.0
230
1.0
 70
     8
 71
     2
 72
     7
 73
     4
 74
     0
 42
0.000000001
 43
0.0000000001
 40
0.0
 40
0.0
 40
0.0
 40
1.0
 40
2.0
 40
2.0
 40
2.0
 10
39.85826589201409
 20
-0.3768233709388795
 30
0.0
 10
39.78290122127223
 20
-0.3257698843072774
 30
0.0
 10
39.59813622203407
 20
-0.2844408713198021
 30
0.0
 10
39.4935981303598
 20
-0.2844408713198021
 30
0.0
  0
SPLINE
  5
EA5
330
D3C
100
AcDbEntity
  8
RONDO
100
AcDbSpline
210
0.0
220
0.0
230
1.0
 70
     8
 71
     2
 72
     7
 73
     4
 74
     0
 42
0.000000001
 43
0.0000000001
 40
0.0
 40
0.0
 40
0.0
 40
1.0
 40
2.0
 40
2.0
 40
2.0
 10
40.01628858873092
 20
-0.7025932380167177
 30
0.0
 10
40.01628858873092
 20
-0.5883306726983762
 30
0.0
 10
39.92876832593393
 20
-0.4254457391594571
 30
0.0
 10
39.85826589201409
 20
-0.3768233709388795
 30
0.0
  0
SPLINE
  5
EA6
330
D3C
100
AcDbEntity
  8
RONDO
100
AcDbSpline
210
0.0
220
0.0
230
1.0
 70
     8
 71
     2
 72
     7
 73
     4
 74
     0
 42
0.000000001
 43
0.0000000001
 40
0.0
 40
0.0
 40
0.0
 40
1.0
 40
2.0
 40
2.0
 40
2.0
 10
39.4060778675628
 20
-1.205834749099636
 30
0.0
 10
39.67593201118697
 20
-1.205834749099636
 30
0.0
 10
40.01628858873092
 20
-0.9481361975305873
 30
0.0
 10
40.01628858873092
 20
-0.7025932380167177
 30
0.0
  0
LINE
  5
EA7
330
D3C
100
AcDbEntity
  8
RONDO
100
AcDbLine
 10
39.27236635495623
 20
-1.205834749099636
 30
0.0
 11
39.4060778675628
 21
-1.205834749099636
 31
0.0
  0
LINE
  5
EA8
330
D3C
100
AcDbEntity
  8
RONDO
100
AcDbLine
 10
39.27236635495623
 20
-1.538897971410548
 30
0.0
 11
39.27236635495623
 21
-1.205834749099636
 31
0.0
  0
LINE
  5
EA9
330
D3C
100
AcDbEntity
  8
RONDO
100
AcDbLine
 10
39.44254464372827
 20
-1.538897971410548
 30
0.0
 11
39.27236635495623
 21
-1.538897971410548
 31
0.0
  0
SPLINE
  5
EAA
330
D3C
100
AcDbEntity
  8
RONDO
100
AcDbSpline
210
0.0
220
0.0
230
1.0
 70
     8
 71
     2
 72
     7
 73
     4
 74
     0
 42
0.000000001
 43
0.0000000001
 40
0.0
 40
0.0
 40
0.0
 40
1.0
 40
2.0
 40
2.0
 40
2.0
 10
39.8947326681795
 20
-1.645867181495802
 30
0.0
 10
39.80964352379348
 20
-1.585089221220101
 30
0.0
 10
39.57868727474582
 20
-1.538897971410548
 30
0.0
 10
39.44254464372827
 20
-1.538897971410548
 30
0.0
  0
SPLINE
  5
EAB
330
D3C
100
AcDbEntity
  8
RONDO
100
AcDbSpline
210
0.0
220
0.0
230
1.0
 70
     8
 71
     2
 72
     7
 73
     4
 74
     0
 42
0.000000001
 43
0.0000000001
 40
0.0
 40
0.0
 40
0.0
 40
1.0
 40
2.0
 40
2.0
 40
2.0
 10
40.07463543059563
 20
-2.081037377069932
 30
0.0
 10
40.07463543059563
 20
-1.918152443531013
 30
0.0
 10
39.97982181256552
 20
-1.706645141771517
 30
0.0
 10
39.8947326681795
 20
-1.645867181495802
 30
0.0
  0
SPLINE
  5
EAC
330
D3C
100
AcDbEntity
  8
RONDO
100
AcDbSpline
210
0.0
220
0.0
230
1.0
 70
     8
 71
     2
 72
     7
 73
     4
 74
     0
 42
0.000000001
 43
0.0000000001
 40
0.0
 40
0.0
 40
0.0
 40
1.0
 40
2.0
 40
2.0
 40
2.0
 10
39.90931937864573
 20
-2.547812111987411
 30
0.0
 10
39.98954628620962
 20
-2.457860730779373
 30
0.0
 10
40.07463543059563
 20
-2.243922310608837
 30
0.0
 10
40.07463543059563
 20
-2.081037377069932
 30
0.0
  0
SPLINE
  5
EAD
330
D3C
100
AcDbEntity
  8
RONDO
100
AcDbSpline
210
0.0
220
0.0
230
1.0
 70
     8
 71
     2
 72
     7
 73
     4
 74
     0
 42
0.000000001
 43
0.0000000001
 40
0.0
 40
0.0
 40
0.0
 40
1.0
 40
2.0
 40
2.0
 40
2.0
 10
39.45470023578335
 20
-2.715559282348394
 30
0.0
 10
39.57868727474582
 20
-2.715559282348394
 30
0.0
 10
39.8266613526707
 20
-2.637763493195464
 30
0.0
 10
39.90931937864573
 20
-2.547812111987411
 30
0.0
  0
SPLINE
  5
EAE
330
D3C
100
AcDbEntity
  8
RONDO
100
AcDbSpline
210
0.0
220
0.0
230
1.0
 70
     8
 71
     2
 72
     7
 73
     4
 74
     0
 42
0.000000001
 43
0.0000000001
 40
0.0
 40
0.0
 40
0.0
 40
1.0
 40
2.0
 40
2.0
 40
2.0
 10
38.6888979363093
 20
-2.452998493957295
 30
0.0
 10
38.81531609368287
 20
-2.545380993576401
 30
0.0
 10
39.24319293402388
 20
-2.715559282348394
 30
0.0
 10
39.45470023578335
 20
-2.715559282348394
 30
0.0
  0
LINE
  5
EAF
330
D3C
100
AcDbEntity
  8
RONDO
100
AcDbLine
 10
38.65972451537701
 20
-2.452998493957295
 30
0.0
 11
38.6888979363093
 21
-2.452998493957295
 31
0.0
  0
LINE
  5
EB0
330
D3C
100
AcDbEntity
  8
RONDO
100
AcDbLine
 10
38.65972451537701
 20
-2.878444215887313
 30
0.0
 11
38.65972451537701
 21
-2.452998493957295
 31
0.0
  0
SPLINE
  5
EB1
330
D3C
100
AcDbEntity
  8
RONDO
100
AcDbSpline
210
0.0
220
0.0
230
1.0
 70
     8
 71
     2
 72
     7
 73
     4
 74
     0
 42
0.000000001
 43
0.0000000001
 40
0.0
 40
0.0
 40
0.0
 40
1.0
 40
2.0
 40
2.0
 40
2.0
 10
39.47901141989368
 20
-3.063209215125496
 30
0.0
 10
39.25291740766804
 20
-3.063209215125496
 30
0.0
 10
38.81045385686079
 20
-2.953808886629204
 30
0.0
 10
38.65972451537701
 20
-2.878444215887313
 30
0.0
  0
SPLINE
  5
EB2
330
D3C
100
AcDbEntity
  8
RONDO
100
AcDbSpline
210
0.0
220
0.0
230
1.0
 70
     8
 71
     2
 72
     7
 73
     4
 74
     0
 42
0.000000001
 43
0.0000000001
 40
0.0
 40
0.0
 40
0.0
 40
1.0
 40
2.0
 40
2.0
 40
2.0
 10
40.2180714168463
 20
-2.786061716268221
 30
0.0
 10
40.08679102265083
 20
-2.922204347285813
 30
0.0
 10
39.71482990576337
 20
-3.063209215125496
 30
0.0
 10
39.47901141989368
 20
-3.063209215125496
 30
0.0
  0
SPLINE
  5
EB3
330
D3C
100
AcDbEntity
  8
RONDO
100
AcDbSpline
210
0.0
220
0.0
230
1.0
 70
     8
 71
     2
 72
     7
 73
     4
 74
     0
 42
0.000000001
 43
0.0000000001
 40
0.0
 40
0.0
 40
0.0
 40
1.0
 40
2.0
 40
2.0
 40
2.0
 10
40.48306332364845
 20
-2.11021079800227
 30
0.0
 10
40.48306332364845
 20
-2.31199362611764
 30
0.0
 10
40.34448957421986
 20
-2.654781322072679
 30
0.0
 10
40.2180714168463
 20
-2.786061716268221
 30
0.0
  0
SPLINE
  5
EB4
330
D3C
100
AcDbEntity
  8
RONDO
100
AcDbSpline
210
0.0
220
0.0
230
1.0
 70
     8
 71
     2
 72
     7
 73
     4
 74
     0
 42
0.000000001
 43
0.0000000001
 40
0.0
 40
0.0
 40
0.0
 40
1.0
 40
2.0
 40
2.0
 40
2.0
 10
40.27398714029996
 20
-1.555915800287735
 30
0.0
 10
40.36636963991909
 20
-1.641004944673753
 30
0.0
 10
40.48306332364845
 20
-1.91329020670895
 30
0.0
 10
40.48306332364845
 20
-2.11021079800227
 30
0.0
  0
SPLINE
  5
EB5
330
D3C
100
AcDbEntity
  8
RONDO
100
AcDbSpline
210
0.0
220
0.0
230
1.0
 70
     8
 71
     2
 72
     7
 73
     4
 74
     0
 42
0.000000001
 43
0.0000000001
 40
0.0
 40
0.0
 40
0.0
 40
1.0
 40
2.0
 40
2.0
 40
2.0
 10
39.87042148406928
 20
-1.361426327405467
 30
0.0
 10
39.9652351020994
 20
-1.380875274693693
 30
0.0
 10
40.18160464068095
 20
-1.468395537490735
 30
0.0
 10
40.27398714029996
 20
-1.555915800287735
 30
0.0
  0
LINE
  5
EB6
330
D3C
100
AcDbEntity
  8
RONDO
100
AcDbLine
 10
39.87042148406928
 20
-1.332252906473115
 30
0.0
 11
39.87042148406928
 21
-1.361426327405467
 31
0.0
  0
SPLINE
  5
EB7
330
D3C
100
AcDbEntity
  8
RONDO
100
AcDbSpline
210
0.0
220
0.0
230
1.0
 70
     8
 71
     2
 72
     7
 73
     4
 74
     0
 42
0.000000001
 43
0.0000000001
 40
0.0
 40
0.0
 40
0.0
 40
1.0
 40
2.0
 40
2.0
 40
2.0
 10
40.42471648178374
 20
-0.6612642250292283
 30
0.0
 10
40.42471648178374
 20
-0.9092383029541366
 30
0.0
 10
40.09894661470596
 20
-1.283630538252552
 30
0.0
 10
39.87042148406928
 20
-1.332252906473115
 30
0.0
  0
SPLINE
  5
EB8
330
D3C
100
AcDbEntity
  8
RONDO
100
AcDbSpline
210
0.0
220
0.0
230
1.0
 70
     8
 71
     2
 72
     7
 73
     4
 74
     0
 42
0.000000001
 43
0.0000000001
 40
0.0
 40
0.0
 40
0.0
 40
1.0
 40
2.0
 40
2.0
 40
2.0
 10
40.15729345657061
 20
-0.1069692273147069
 30
0.0
 10
40.28857385076619
 20
-0.2017828453448232
 30
0.0
 10
40.42471648178374
 20
-0.4764992257910592
 30
0.0
 10
40.42471648178374
 20
-0.6612642250292283
 30
0.0
  0
SPLINE
  5
EB9
330
D3C
100
AcDbEntity
  8
RONDO
100
AcDbSpline
210
0.0
220
0.0
230
1.0
 70
     8
 71
     2
 72
     7
 73
     4
 74
     0
 42
0.000000001
 43
0.0000000001
 40
0.0
 40
0.0
 40
0.0
 40
1.0
 40
2.0
 40
2.0
 40
2.0
 10
39.52520266970314
 20
0.0632090614573002
 30
0.0
 10
39.7294166162296
 20
0.0632090614573002
 30
0.0
 10
40.03330641760814
 20
-0.0194489645176788
 30
0.0
 10
40.15729345657061
 20
-0.1069692273147069
 30
0.0
  0
SPLINE
  5
EBA
330
D3C
100
AcDbEntity
  8
RONDO
100
AcDbSpline
210
0.0
220
0.0
230
1.0
 70
     8
 71
     2
 72
     7
 73
     4
 74
     0
 42
0.000000001
 43
0.0000000001
 40
0.0
 40
0.0
 40
0.0
 40
1.0
 40
2.0
 40
2.0
 40
2.0
 10
38.74238254135199
 20
-0.121555937780883
 30
0.0
 10
38.87366293554757
 20
-0.0510535038610414
 30
0.0
 10
39.32341984158782
 20
0.0632090614573002
 30
0.0
 10
39.52520266970314
 20
0.0632090614573002
 30
0.0
  0
LINE
  5
EBB
330
D3C
100
AcDbEntity
  8
RONDO
100
AcDbLine
 10
38.74238254135199
 20
-0.5470016597108867
 30
0.0
 11
38.74238254135199
 21
-0.121555937780883
 31
0.0
  0
LINE
  5
EBC
330
D3C
100
AcDbEntity
  8
RONDO
100
AcDbLine
 10
38.76669372546221
 20
-0.5470016597108867
 30
0.0
 11
38.74238254135199
 21
-0.5470016597108867
 31
0.0
  0
SPLINE
  5
EBD
330
D3C
100
AcDbEntity
  8
RONDO
100
AcDbSpline
210
0.0
220
0.0
230
1.0
 70
     8
 71
     2
 72
     7
 73
     4
 74
     0
 42
0.000000001
 43
0.0000000001
 40
0.0
 40
0.0
 40
0.0
 40
1.0
 40
2.0
 40
2.0
 40
2.0
 10
39.06329017160781
 20
-0.3792544893499183
 30
0.0
 10
38.96604543516659
 20
-0.4205835023373936
 30
0.0
 10
38.82260944891593
 20
-0.5081037651344218
 30
0.0
 10
38.76669372546221
 20
-0.5470016597108867
 30
0.0
  0
SPLINE
  5
EBE
330
D3C
100
AcDbEntity
  8
RONDO
100
AcDbSpline
210
0.0
220
0.0
230
1.0
 70
     8
 71
     2
 72
     7
 73
     4
 74
     0
 42
0.000000001
 43
0.0000000001
 40
0.0
 40
0.0
 40
0.0
 40
1.0
 40
2.0
 40
2.0
 40
2.0
 10
39.4935981303598
 20
-0.2844408713198021
 30
0.0
 10
39.38419780186356
 20
-0.2844408713198021
 30
0.0
 10
39.16782826328202
 20
-0.3379254763624147
 30
0.0
 10
39.06329017160781
 20
-0.3792544893499183
 30
0.0
  0
LINE
  5
EBF
330
D3C
100
AcDbEntity
  8
RONDO
100
AcDbLine
 10
40.58217182018378
 20
-9.813679216649134
 30
0.0
 11
40.58217182018378
 21
-10.12000013643873
 31
0.0
  0
LINE
  5
EC0
330
D3C
100
AcDbEntity
  8
RONDO
100
AcDbLine
 10
40.04975688816855
 20
-9.813679216649134
 30
0.0
 11
40.58217182018378
 21
-9.813679216649134
 31
0.0
  0
LINE
  5
EC1
330
D3C
100
AcDbEntity
  8
RONDO
100
AcDbLine
 10
40.04975688816855
 20
-7.110275543585331
 30
0.0
 11
40.04975688816855
 21
-9.813679216649134
 31
0.0
  0
LINE
  5
EC2
330
D3C
100
AcDbEntity
  8
RONDO
100
AcDbLine
 10
39.7385737315569
 20
-7.110275543585331
 30
0.0
 11
40.04975688816855
 21
-7.110275543585331
 31
0.0
  0
SPLINE
  5
EC3
330
D3C
100
AcDbEntity
  8
RONDO
100
AcDbSpline
210
0.0
220
0.0
230
1.0
 70
     8
 71
     2
 72
     7
 73
     4
 74
     0
 42
0.000000001
 43
0.0000000001
 40
0.0
 40
0.0
 40
0.0
 40
1.0
 40
2.0
 40
2.0
 40
2.0
 10
39.11863853674461
 20
-7.528427910282246
 30
0.0
 10
39.42739057494529
 20
-7.528427910282246
 30
0.0
 10
39.71912478426864
 20
-7.35338738468819
 30
0.0
 10
39.7385737315569
 20
-7.110275543585331
 30
0.0
  0
LINE
  5
EC4
330
D3C
100
AcDbEntity
  8
RONDO
100
AcDbLine
 10
39.11863853674461
 20
-7.803144290728482
 30
0.0
 11
39.11863853674461
 21
-7.528427910282246
 31
0.0
  0
LINE
  5
EC5
330
D3C
100
AcDbEntity
  8
RONDO
100
AcDbLine
 10
39.66320906081498
 20
-7.803144290728482
 30
0.0
 11
39.11863853674461
 21
-7.803144290728482
 31
0.0
  0
LINE
  5
EC6
330
D3C
100
AcDbEntity
  8
RONDO
100
AcDbLine
 10
39.66320906081498
 20
-9.813679216649134
 30
0.0
 11
39.66320906081498
 21
-7.803144290728482
 31
0.0
  0
LINE
  5
EC7
330
D3C
100
AcDbEntity
  8
RONDO
100
AcDbLine
 10
39.11863853674461
 20
-9.813679216649134
 30
0.0
 11
39.66320906081498
 21
-9.813679216649134
 31
0.0
  0
LINE
  5
EC8
330
D3C
100
AcDbEntity
  8
RONDO
100
AcDbLine
 10
39.11863853674461
 20
-10.12000013643873
 30
0.0
 11
39.11863853674461
 21
-9.813679216649134
 31
0.0
  0
LINE
  5
EC9
330
D3C
100
AcDbEntity
  8
RONDO
100
AcDbLine
 10
40.58217182018378
 20
-10.12000013643873
 30
0.0
 11
39.11863853674461
 21
-10.12000013643873
 31
0.0
  0
ARC
  5
ECA
330
D3C
100
AcDbEntity
  8
RONDO
100
AcDbCircle
 10
-0.0000000000000284
 20
40.50000000000001
 30
0.0
 40
2.499999999999999
100
AcDbArc
 50
180.0
 51
0.0
  0
LINE
  5
ECB
330
D3C
100
AcDbEntity
  8
RONDO
100
AcDbLine
 10
-2.500000000000028
 20
40.50000000000001
 30
0.0
 11
-2.500000000000028
 21
60.50000000000001
 31
0.0
  0
ARC
  5
ECC
330
D3C
100
AcDbEntity
  8
RONDO
100
AcDbCircle
 10
-0.0000000000000284
 20
60.50000000000001
 30
0.0
 40
2.499999999999999
100
AcDbArc
 50
0.0
 51
180.0
  0
LINE
  5
ECD
330
D3C
100
AcDbEntity
  8
RONDO
100
AcDbLine
 10
2.499999999999971
 20
60.50000000000001
 30
0.0
 11
2.499999999999971
 21
40.50000000000001
 31
0.0
  0
CIRCLE
  5
ECE
330
D3C
100
AcDbEntity
  8
RONDO
100
AcDbCircle
 10
19.99999999999997
 20
31.00000000000001
 30
0.0
 40
2.5
  0
CIRCLE
  5
ECF
330
D3C
100
AcDbEntity
  8
RONDO
100
AcDbCircle
 10
-31.00000000000003
 20
17.00000000000001
 30
0.0
 40
2.5
  0
CIRCLE
  5
ED0
330
D3C
100
AcDbEntity
  8
RONDO
100
AcDbCircle
 10
30.99999999999997
 20
17.00000000000001
 30
0.0
 40
2.5
  0
CIRCLE
  5
ED1
330
D3C
100
AcDbEntity
  8
RONDO
100
AcDbCircle
 10
-20.00000000000003
 20
31.00000000000001
 30
0.0
 40
2.5
  0
CIRCLE
  5
ED2
330
D3C
100
AcDbEntity
  8
RONDO
100
AcDbCircle
 10
-0.0000000000000284
 20
17.00000000000001
 30
0.0
 40
3.174999999999999
  0
ARC
  5
ED3
330
D3C
100
AcDbEntity
  8
RONDO
100
AcDbCircle
 10
-25.75000000000003
 20
-2.999999999999985
 30
0.0
 40
0.4999999999999983
100
AcDbArc
 50
0.0
 51
90.0
  0
ARC
  5
ED4
330
D3C
100
AcDbEntity
  8
RONDO
100
AcDbCircle
 10
25.75000000000003
 20
-2.999999999999985
 30
0.0
 40
0.4999999999999938
100
AcDbArc
 50
90.0
 51
180.0
  0
LINE
  5
ED5
330
D3C
100
AcDbEntity
  8
RONDO
100
AcDbLine
 10
-25.75000000000003
 20
-2.5
 30
0.0
 11
-27.90000000000001
 21
-2.5
 31
0.0
  0
LINE
  5
ED6
330
D3C
100
AcDbEntity
  8
RONDO
100
AcDbLine
 10
-30.90000000000001
 20
-1.999999999999985
 30
0.0
 11
-30.90000000000001
 21
-0.9999999999999857
 31
0.0
  0
LINE
  5
ED7
330
D3C
100
AcDbEntity
  8
RONDO
100
AcDbLine
 10
-29.90000000000001
 20
0.0
 30
0.0
 11
29.90000000000001
 21
0.0
 31
0.0
  0
LINE
  5
ED8
330
D3C
100
AcDbEntity
  8
RONDO
100
AcDbLine
 10
30.90000000000001
 20
-0.9999999999999857
 30
0.0
 11
30.90000000000001
 21
-1.999999999999985
 31
0.0
  0
LINE
  5
ED9
330
D3C
100
AcDbEntity
  8
RONDO
100
AcDbLine
 10
27.89999999999995
 20
-2.5
 30
0.0
 11
25.75000000000003
 21
-2.5
 31
0.0
  0
LINE
  5
EDA
330
D3C
100
AcDbEntity
  8
RONDO
100
AcDbLine
 10
25.24999999999997
 20
-2.999999999999985
 30
0.0
 11
25.24999999999997
 21
-4.0
 31
0.0
  0
LINE
  5
EDB
330
D3C
100
AcDbEntity
  8
RONDO
100
AcDbLine
 10
-25.25000000000003
 20
-4.0
 30
0.0
 11
-25.25000000000003
 21
-2.999999999999985
 31
0.0
  0
ARC
  5
EDC
330
D3C
100
AcDbEntity
  8
RONDO
100
AcDbCircle
 10
-28.40000000000001
 20
-2.499999999999985
 30
0.0
 40
0.5000000000000094
100
AcDbArc
 50
270.0
 51
0.0
  0
ARC
  5
EDD
330
D3C
100
AcDbEntity
  8
RONDO
100
AcDbCircle
 10
28.40000000000001
 20
-2.499999999999985
 30
0.0
 40
0.5000000000000071
100
AcDbArc
 50
180.0
 51
270.0
  0
LINE
  5
EDE
330
D3C
100
AcDbEntity
  8
RONDO
100
AcDbLine
 10
-28.40000000000001
 20
-2.999999999999985
 30
0.0
 11
-29.90000000000001
 21
-2.999999999999985
 31
0.0
  0
LINE
  5
EDF
330
D3C
100
AcDbEntity
  8
RONDO
100
AcDbLine
 10
29.90000000000001
 20
-2.999999999999985
 30
0.0
 11
28.40000000000001
 21
-2.999999999999985
 31
0.0
  0
ARC
  5
EE0
330
D3C
100
AcDbEntity
  8
RONDO
100
AcDbCircle
 10
-29.90000000000001
 20
-1.999999999999985
 30
0.0
 40
1.0
100
AcDbArc
 50
180.0
 51
270.0
  0
ARC
  5
EE1
330
D3C
100
AcDbEntity
  8
RONDO
100
AcDbCircle
 10
-29.90000000000001
 20
-0.9999999999999857
 30
0.0
 40
1.000000000000003
100
AcDbArc
 50
90.0
 51
180.0
  0
ARC
  5
EE2
330
D3C
100
AcDbEntity
  8
RONDO
100
AcDbCircle
 10
29.90000000000001
 20
-0.9999999999999857
 30
0.0
 40
1.000000000000005
100
AcDbArc
 50
0.0
 51
90.0
  0
ARC
  5
EE3
330
D3C
100
AcDbEntity
  8
RONDO
100
AcDbCircle
 10
29.90000000000001
 20
-1.999999999999985
 30
0.0
 40
0.9999999999999985
100
AcDbArc
 50
270.0
 51
0.0
  0
LINE
  5
EE4
330
D3C
100
AcDbEntity
  8
RONDO
100
AcDbLine
 10
25.24999999999997
 20
-4.0
 30
0.0
 11
28.05083015283882
 21
-7.999999999999985
 31
0.0
  0
LINE
  5
EE5
330
D3C
100
AcDbEntity
  8
RONDO
100
AcDbLine
 10
28.05083015283882
 20
-7.999999999999985
 30
0.0
 11
33.45750000000001
 21
-7.999999999999985
 31
0.0
  0
LINE
  5
EE6
330
D3C
100
AcDbEntity
  8
RONDO
100
AcDbLine
 10
33.45750000000001
 20
-7.999999999999985
 30
0.0
 11
34.84999999999999
 21
-8.619999999999976
 31
0.0
  0
LINE
  5
EE7
330
D3C
100
AcDbEntity
  8
RONDO
100
AcDbLine
 10
34.84999999999999
 20
-8.619999999999976
 30
0.0
 11
34.84999999999999
 21
-8.669999999999987
 31
0.0
  0
LINE
  5
EE8
330
D3C
100
AcDbEntity
  8
RONDO
100
AcDbLine
 10
33.74999999999997
 20
-9.769999999999996
 30
0.0
 11
30.55199999999999
 21
-9.769999999999981
 31
0.0
  0
LINE
  5
EE9
330
D3C
100
AcDbEntity
  8
RONDO
100
AcDbLine
 10
-30.55199999999999
 20
-9.769999999999981
 30
0.0
 11
-33.75000000000003
 21
-9.769999999999996
 31
0.0
  0
LINE
  5
EEA
330
D3C
100
AcDbEntity
  8
RONDO
100
AcDbLine
 10
-34.84999999999999
 20
-8.669999999999987
 30
0.0
 11
-34.84999999999999
 21
-8.619999999999976
 31
0.0
  0
LINE
  5
EEB
330
D3C
100
AcDbEntity
  8
RONDO
100
AcDbLine
 10
-34.84999999999999
 20
-8.619999999999976
 30
0.0
 11
-33.45750000000001
 21
-7.999999999999985
 31
0.0
  0
LINE
  5
EEC
330
D3C
100
AcDbEntity
  8
RONDO
100
AcDbLine
 10
-33.45750000000001
 20
-7.999999999999985
 30
0.0
 11
-28.05083015283887
 21
-7.999999999999985
 31
0.0
  0
ARC
  5
EED
330
D3C
100
AcDbEntity
  8
RONDO
100
AcDbCircle
 10
33.74999999999997
 20
-8.669999999999987
 30
0.0
 40
1.100000000000011
100
AcDbArc
 50
270.0
 51
0.0
  0
ARC
  5
EEE
330
D3C
100
AcDbEntity
  8
RONDO
100
AcDbCircle
 10
-33.75000000000003
 20
-8.669999999999987
 30
0.0
 40
1.100000000000011
100
AcDbArc
 50
180.0
 51
270.0
  0
LINE
  5
EEF
330
D3C
100
AcDbEntity
  8
RONDO
100
AcDbLine
 10
30.75000000000003
 20
-9.279999999999986
 30
0.0
 11
30.55199999999999
 21
-9.769999999999981
 31
0.0
  0
LINE
  5
EF0
330
D3C
100
AcDbEntity
  8
RONDO
100
AcDbLine
 10
28.99999999999997
 20
-9.279999999999986
 30
0.0
 11
30.75000000000003
 21
-9.279999999999986
 31
0.0
  0
LINE
  5
EF1
330
D3C
100
AcDbEntity
  8
RONDO
100
AcDbLine
 10
-30.75000000000003
 20
-9.279999999999986
 30
0.0
 11
-29.00000000000003
 21
-9.279999999999986
 31
0.0
  0
LINE
  5
EF2
330
D3C
100
AcDbEntity
  8
RONDO
100
AcDbLine
 10
-30.55199999999999
 20
-9.769999999999981
 30
0.0
 11
-30.75000000000003
 21
-9.279999999999986
 31
0.0
  0
ARC
  5
EF3
330
D3C
100
AcDbEntity
  8
RONDO
100
AcDbCircle
 10
44.96047160804002
 20
-8.156013323500843
 30
0.0
 40
15.99999999999996
100
AcDbArc
 50
184.0282986830735
 51
213.8127428981726
  0
ARC
  5
EF4
330
D3C
100
AcDbEntity
  8
RONDO
100
AcDbCircle
 10
41.79999999999998
 20
-5.999906989315476
 30
0.0
 40
15.0000930106845
100
AcDbArc
 50
227.5031910464108
 51
270.0
  0
ARC
  5
EF5
330
D3C
100
AcDbEntity
  8
RONDO
100
AcDbCircle
 10
41.79999999999998
 20
-17.79999999999997
 30
0.0
 40
3.200000000000011
100
AcDbArc
 50
270.0
 51
0.0
  0
ARC
  5
EF6
330
D3C
100
AcDbEntity
  8
RONDO
100
AcDbCircle
 10
-41.79999999999998
 20
-17.79999999999997
 30
0.0
 40
3.200000000000007
100
AcDbArc
 50
180.0
 51
270.0
  0
LINE
  5
EF7
330
D3C
100
AcDbEntity
  8
RONDO
100
AcDbLine
 10
44.99999999999997
 20
-17.79999999999998
 30
0.0
 11
44.99999999999997
 21
12.00000000000001
 31
0.0
  0
LINE
  5
EF8
330
D3C
100
AcDbEntity
  8
RONDO
100
AcDbLine
 10
44.99999999999997
 20
12.00000000000001
 30
0.0
 11
23.68925094400672
 21
64.74605954079097
 31
0.0
  0
LINE
  5
EF9
330
D3C
100
AcDbEntity
  8
RONDO
100
AcDbLine
 10
14.41740981525297
 20
71.00000000000001
 30
0.0
 11
-14.41740981525302
 21
71.00000000000001
 31
0.0
  0
LINE
  5
EFA
330
D3C
100
AcDbEntity
  8
RONDO
100
AcDbLine
 10
-23.68925094400672
 20
64.74605954079097
 30
0.0
 11
-45.00000000000002
 21
12.00000000000001
 31
0.0
  0
LINE
  5
EFB
330
D3C
100
AcDbEntity
  8
RONDO
100
AcDbLine
 10
-45.00000000000002
 20
12.00000000000001
 30
0.0
 11
-45.00000000000002
 21
-17.79999999999998
 31
0.0
  0
ARC
  5
EFC
330
D3C
100
AcDbEntity
  8
RONDO
100
AcDbCircle
 10
14.41740981525297
 20
60.99999999999998
 30
0.0
 40
10.00000000000001
100
AcDbArc
 50
21.99996049187442
 51
90.0
  0
ARC
  5
EFD
330
D3C
100
AcDbEntity
  8
RONDO
100
AcDbCircle
 10
-14.41740981525302
 20
61.00000000000004
 30
0.0
 40
9.999999999999976
100
AcDbArc
 50
90.0
 51
158.0000395081261
  0
ARC
  5
EFE
330
D3C
100
AcDbEntity
  8
RONDO
100
AcDbCircle
 10
-41.79999999999998
 20
-5.999906989315476
 30
0.0
 40
15.0000930106845
100
AcDbArc
 50
270.0
 51
312.4968089535892
  0
ARC
  5
EFF
330
D3C
100
AcDbEntity
  8
RONDO
100
AcDbCircle
 10
-44.96047160804008
 20
-8.156013323500829
 30
0.0
 40
16.00000000000003
100
AcDbArc
 50
326.1872571018274
 51
355.9717013169265
  0
LINE
  5
F00
330
D3C
100
AcDbEntity
  8
RONDO
100
AcDbLine
 10
-28.05083015283887
 20
-7.999999999999985
 30
0.0
 11
-25.25000000000003
 21
-4.0
 31
0.0
  0
ENDBLK
  5
D3E
330
D3C
100
AcDbEntity
  8
0
100
AcDbBlockEnd
  0
ENDSEC
  0
SECTION
  2
ENTITIES
  0
INSERT
  5
F01
330
1F
100
AcDbEntity
  8
0
100
AcDbBlockReference
  2
RONDO_311D
 10
0.0
 20
0.0
 30
0.0
  0
ENDSEC
  0
SECTION
  2
OBJECTS
  0
DICTIONARY
  5
C
330
0
100
AcDbDictionary
281
     1
  3
ACAD_2007HEADERVARS_RT
350
F4D
  3
ACAD_CIP_PREVIOUS_PRODUCT_INFO
350
3BC
  3
ACAD_COLOR
350
73
  3
ACAD_DETAILVIEWSTYLE
350
3B8
  3
ACAD_GROUP
350
D
  3
ACAD_LAYOUT
350
1A
  3
ACAD_MATERIAL
350
72
  3
ACAD_MLEADERSTYLE
350
D7
  3
ACAD_MLINESTYLE
350
17
  3
ACAD_PLOTSETTINGS
350
19
  3
ACAD_PLOTSTYLENAME
350
E
  3
ACAD_SCALELIST
350
B6
  3
ACAD_SECTIONVIEWSTYLE
350
3B6
  3
ACAD_TABLESTYLE
350
86
  3
ACAD_VISUALSTYLE
350
99
  3
ACDB_RECOMPOSE_DATA
350
F4B
  3
AcDbVariableDictionary
350
66
  3
DWGPROPS
350
F4C
  0
DICTIONARY
  5
36B
330
8
100
AcDbDictionary
280
     1
281
     1
  0
DICTIONARY
  5
179
330
2
100
AcDbDictionary
280
     1
281
     1
  3
ACAD_LAYERSTATES
360
17A
  0
DICTIONARY
  5
E6
330
10
100
AcDbDictionary
280
     1
281
     1
  0
DICTIONARY
  5
15D
330
1F
100
AcDbDictionary
280
     1
281
     1
  3
ACAD_SORTENTS
360
2B3
  0
DICTIONARY
  5
F4D
102
{ACAD_REACTORS
330
C
102
}
330
C
100
AcDbDictionary
281
     1
  3
INTERFEREVPVS
350
F4E
  0
XRECORD
  5
3BC
102
{ACAD_REACTORS
330
C
102
}
330
C
100
AcDbXrecord
280
     1
300
AMECH_PP
300
2016
300
86477PDSP_2016_0F
  0
DICTIONARY
  5
73
102
{ACAD_REACTORS
330
C
102
}
330
C
100
AcDbDictionary
281
     1
  0
DICTIONARY
  5
3B8
102
{ACAD_REACTORS
330
C
102
}
330
C
100
AcDbDictionary
281
     1
  3
Imperial24
350
3B9
  3
Metric50
350
3CA
  0
DICTIONARY
  5
D
102
{ACAD_REACTORS
330
C
102
}
330
C
100
AcDbDictionary
281
     1
  0
DICTIONARY
  5
1A
102
{ACAD_REACTORS
330
C
102
}
330
C
100
AcDbDictionary
281
     1
  3
Layout1
350
59
  3
Layout2
350
5E
  3
Model
350
22
  0
DICTIONARY
  5
72
102
{ACAD_REACTORS
330
C
102
}
330
C
100
AcDbDictionary
281
     1
  3
ByBlock
350
97
  3
ByLayer
350
96
  3
Global
350
98
  0
DICTIONARY
  5
D7
102
{ACAD_REACTORS
330
C
102
}
330
C
100
AcDbDictionary
281
     1
  3
Standard
350
D8
  0
DICTIONARY
  5
17
102
{ACAD_REACTORS
330
C
102
}
330
C
100
AcDbDictionary
281
     1
  3
Standard
350
18
  0
DICTIONARY
  5
19
102
{ACAD_REACTORS
330
C
102
}
330
C
100
AcDbDictionary
281
     1
  0
ACDBDICTIONARYWDFLT
  5
E
102
{ACAD_REACTORS
330
C
102
}
330
C
100
AcDbDictionary
281
     1
  3
Normal
350
F
100
AcDbDictionaryWithDefault
340
F
  0
DICTIONARY
  5
B6
102
{ACAD_REACTORS
330
C
102
}
330
C
100
AcDbDictionary
281
     1
  3
A0
350
B7
  3
A1
350
124
  3
A2
350
125
  3
A3
350
126
  3
A4
350
127
  3
A5
350
128
  3
A6
350
129
  3
A7
350
12A
  3
A8
350
12B
  3
A9
350
12C
  3
B0
350
12D
  3
B1
350
12E
  3
B2
350
12F
  3
B3
350
130
  3
B4
350
131
  3
B5
350
132
  3
B6
350
133
  3
B7
350
134
  3
B8
350
135
  3
B9
350
136
  3
C0
350
137
  3
C1
350
138
  3
C2
350
139
  3
C3
350
13A
  3
C4
350
13B
  3
C5
350
13C
  3
C6
350
13D
  3
C7
350
13E
  3
C8
350
13F
  3
C9
350
140
  3
D0
350
141
  3
D1
350
142
  3
D2
350
143
  0
DICTIONARY
  5
3B6
102
{ACAD_REACTORS
330
C
102
}
330
C
100
AcDbDictionary
281
     1
  3
Imperial24
350
3B7
  3
Metric50
350
3C9
  0
DICTIONARY
  5
86
102
{ACAD_REACTORS
330
C
102
}
330
C
100
AcDbDictionary
281
     1
  3
Standard
350
87
  0
DICTIONARY
  5
99
102
{ACAD_REACTORS
330
C
102
}
330
C
100
AcDbDictionary
281
     1
  3
2dWireframe
350
9F
  3
3D Hidden
350
A1
  3
3dWireframe
350
A0
  3
Basic
350
9E
  3
Brighten
350
A5
  3
ColorChange
350
A9
  3
Conceptual
350
A2
  3
Dim
350
A4
  3
EdgeColorOff
350
1FB
  3
Facepattern
350
A8
  3
Flat
350
9A
  3
FlatWithEdges
350
9B
  3
Gouraud
350
9C
  3
GouraudWithEdges
350
9D
  3
Hidden
350
1F3
  3
JitterOff
350
1F9
  3
Linepattern
350
A7
  3
OverhangOff
350
1FA
  3
Realistic
350
A3
  3
Shaded
350
1F8
  3
Shaded with edges
350
1F7
  3
Shades of Gray
350
1F4
  3
Sketchy
350
1F5
  3
Thicken
350
A6
  3
Wireframe
350
1F2
  3
X-Ray
350
1F6
  0
XRECORD
  5
F4B
102
{ACAD_REACTORS
330
C
102
}
330
C
100
AcDbXrecord
280
     1
 90
        1
330
87
  0
DICTIONARY
  5
66
102
{ACAD_REACTORS
330
C
102
}
330
C
100
AcDbDictionary
281
     1
  3
CANNOSCALE
350
F0
  3
CMLEADERSTYLE
350
EF
  3
CTABLESTYLE
350
89
  3
CVIEWDETAILSTYLE
350
4DE
  3
CVIEWSECTIONSTYLE
350
4DF
  3
DIMASSOC
350
67
  3
HIDETEXT
350
6B
  3
INDEXCTL
350
3B0
  3
LAYEREVAL
350
14D
  3
LAYERNOTIFY
350
14E
  3
LIGHTINGUNITS
350
3AE
  3
LOFTANG1
350
5D2
  3
LOFTANG2
350
5D3
  3
MSLTSCALE
350
3AD
  3
SORTENTS
350
3AF
  3
XCLIPFRAME
350
5D4
  0
XRECORD
  5
F4C
102
{ACAD_REACTORS
330
C
102
}
330
C
100
AcDbXrecord
280
     1
  1
DWGPROPS COOKIE
  2

  3

  4

  6

  7

  8
Joanne.Taylor
  9

300
=
301
=
302
=
303
=
304
=
305
=
306
=
307
=
308
=
309
=
 40
0.0401327083333333
 41
2455156.544251412
 42
2457738.48782132
  1

 90
        0
  0
DICTIONARY
  5
17A
102
{ACAD_REACTORS
330
179
102
}
330
179
100
AcDbDictionary
281
     1
  0
SORTENTSTABLE
  5
2B3
102
{ACAD_REACTORS
330
15D
102
}
330
15D
100
AcDbSortentsTable
330
1F
  0
XRECORD
  5
F4E
102
{ACAD_REACTORS
330
F4D
102
}
330
F4D
100
AcDbXrecord
280
     1
340
A0
  0
ACDBDETAILVIEWSTYLE
  5
3B9
102
{ACAD_XDICTIONARY
360
F8C
102
}
102
{ACAD_REACTORS
330
3B8
102
}
330
3B8
100
AcDbModelDocViewStyle
 70
     0
  3
Imperial24
290
     0
100
AcDbDetailViewStyle
 70
     0
 71
     0
 90
        3
 71
     1
340
11
 40
0.24
340
0
 40
0.24
300

 40
0.36
280
     3
 71
     2
340
16
 90
       25
 71
     3
340
11
 40
0.24
 90
        1
 40
0.75
 90
        1
300
%<\AcVar ViewType \f "%tc1">% %<\AcVar ViewDetailId>%\PSCALE %<\AcVar ViewScale \f "%sn">%
 71
     4
340
16
 90
       25
340
16
 90
       25
280
     0
  0
ACDBDETAILVIEWSTYLE
  5
3CA
102
{ACAD_XDICTIONARY
360
F90
102
}
102
{ACAD_REACTORS
330
3B8
102
}
330
3B8
100
AcDbModelDocViewStyle
 70
     0
  3
Metric50
290
     0
100
AcDbDetailViewStyle
 70
     0
 71
     0
 90
        3
 71
     1
340
11
 40
5.0
340
0
 40
5.0
300

 40
0.0
280
     1
 71
     2
340
16
 90
       25
 71
     3
340
11
 40
5.0
 90
        0
 40
15.0
 90
        1
300
%<\AcVar ViewDetailId>% (%<\AcVar ViewScale \f "%sn">%)
 71
     4
340
16
 90
       25
340
16
 90
       25
280
     0
  0
LAYOUT
  5
59
102
{ACAD_XDICTIONARY
360
F51
102
}
102
{ACAD_REACTORS
330
1A
102
}
330
1A
100
AcDbPlotSettings
  1

  2
None
  4

  6

 40
0.0
 41
0.0
 42
0.0
 43
0.0
 44
0.0
 45
0.0
 46
0.0
 47
0.0
 48
0.0
 49
0.0
140
0.0
141
0.0
142
1.0
143
1.0
 70
   688
 72
     0
 73
     0
 74
     5
  7

 75
    16
147
1.0
148
0.0
149
0.0
100
AcDbLayout
  1
Layout1
 70
     1
 71
     1
 10
0.0
 20
0.0
 11
12.0
 21
9.0
 12
0.0
 22
0.0
 32
0.0
 14
0.0
 24
0.0
 34
0.0
 15
0.0
 25
0.0
 35
0.0
146
0.0
 13
0.0
 23
0.0
 33
0.0
 16
1.0
 26
0.0
 36
0.0
 17
0.0
 27
1.0
 37
0.0
 76
     0
330
58
  0
LAYOUT
  5
5E
102
{ACAD_XDICTIONARY
360
F53
102
}
102
{ACAD_REACTORS
330
1A
102
}
330
1A
100
AcDbPlotSettings
  1

  2
None
  4

  6

 40
0.0
 41
0.0
 42
0.0
 43
0.0
 44
0.0
 45
0.0
 46
0.0
 47
0.0
 48
0.0
 49
0.0
140
0.0
141
0.0
142
1.0
143
1.0
 70
   688
 72
     0
 73
     0
 74
     5
  7

 75
    16
147
1.0
148
0.0
149
0.0
100
AcDbLayout
  1
Layout2
 70
     1
 71
     2
 10
0.0
 20
0.0
 11
12.0
 21
9.0
 12
0.0
 22
0.0
 32
0.0
 14
0.0
 24
0.0
 34
0.0
 15
0.0
 25
0.0
 35
0.0
146
0.0
 13
0.0
 23
0.0
 33
0.0
 16
1.0
 26
0.0
 36
0.0
 17
0.0
 27
1.0
 37
0.0
 76
     0
330
5D
  0
LAYOUT
  5
22
102
{ACAD_XDICTIONARY
360
F4F
102
}
102
{ACAD_REACTORS
330
1A
102
}
330
1A
100
AcDbPlotSettings
  1

  2
none_device
  4
ANSI_A_(8.50_x_11.00_Inches)
  6

 40
6.349999904632567
 41
19.04999923706055
 42
6.350006103515625
 43
19.04998779296875
 44
215.8999938964844
 45
279.3999938964844
 46
0.0
 47
0.0
 48
0.0
 49
0.0
140
0.0
141
0.0
142
1.0
143
2.584895464708373
 70
 11952
 72
     0
 73
     1
 74
     0
  7

 75
     0
147
0.3868628397755418
148
0.0
149
0.0
100
AcDbLayout
  1
Model
 70
     1
 71
     0
 10
0.0
 20
0.0
 11
12.0
 21
9.0
 12
0.0
 22
0.0
 32
0.0
 14
0.0
 24
0.0
 34
0.0
 15
0.0
 25
0.0
 35
0.0
146
0.0
 13
0.0
 23
0.0
 33
0.0
 16
1.0
 26
0.0
 36
0.0
 17
0.0
 27
1.0
 37
0.0
 76
     0
330
1F
331
94
  0
MATERIAL
  5
97
102
{ACAD_XDICTIONARY
360
4FF
102
}
102
{ACAD_REACTORS
330
72
102
}
330
72
100
AcDbMaterial
  1
ByBlock
  0
MATERIAL
  5
96
102
{ACAD_XDICTIONARY
360
4FD
102
}
102
{ACAD_REACTORS
330
72
102
}
330
72
100
AcDbMaterial
  1
ByLayer
  0
MATERIAL
  5
98
102
{ACAD_XDICTIONARY
360
110
102
}
102
{ACAD_REACTORS
330
72
102
}
330
72
100
AcDbMaterial
  1
Global
 43
0.0208000000566244
 43
0.0
 43
0.0
 43
0.0
 43
0.0
 43
0.0208000000566244
 43
0.0
 43
0.0
 43
0.0
 43
0.0
 43
1.0
 43
0.0
 43
0.0
 43
0.0
 43
0.0
 43
1.0
 49
0.0208000000566244
 49
0.0
 49
0.0
 49
0.0
 49
0.0
 49
0.0208000000566244
 49
0.0
 49
0.0
 49
0.0
 49
0.0
 49
1.0
 49
0.0
 49
0.0
 49
0.0
 49
0.0
 49
1.0
142
0.0208000000566244
142
0.0
142
0.0
142
0.0
142
0.0
142
0.0208000000566244
142
0.0
142
0.0
142
0.0
142
0.0
142
1.0
142
0.0
142
0.0
142
0.0
142
0.0
142
1.0
144
0.0208000000566244
144
0.0
144
0.0
144
0.0
144
0.0
144
0.0208000000566244
144
0.0
144
0.0
144
0.0
144
0.0
144
1.0
144
0.0
144
0.0
144
0.0
144
0.0
144
1.0
1001
ACAD
1070
    -1
1070
     3
1070
     0
1000

1071
        0
1070
     0
  0
MLEADERSTYLE
  5
D8
102
{ACAD_REACTORS
330
D7
102
}
330
D7
100
AcDbMLeaderStyle
170
     2
171
     1
172
     0
 90
        2
 40
0.0
 41
0.0
173
     1
 91
-1056964608
340
14
 92
       -2
290
     1
 42
0.09
291
     1
 43
0.36
  3
Standard
 44
0.18
300

342
11
174
     1
178
     1
175
     1
176
     0
 93
-1056964608
 45
0.18
292
     0
297
     0
 46
0.18
 94
-1056964608
 47
1.0
 49
1.0
140
1.0
293
     1
141
0.0
294
     1
177
     0
142
1.0
295
     0
296
     0
143
0.125
1001
ACAD_MLEADERVER
1070
     2
  0
MLINESTYLE
  5
18
102
{ACAD_REACTORS
330
17
102
}
330
17
100
AcDbMlineStyle
  2
STANDARD
 70
     0
  3

 62
   256
 51
90.0
 52
90.0
 71
     2
 49
0.5
 62
   256
  6
BYLAYER
 49
-0.5
 62
   256
  6
BYLAYER
  0
ACDBPLACEHOLDER
  5
F
102
{ACAD_REACTORS
330
E
102
}
330
E
  0
SCALE
  5
B7
102
{ACAD_REACTORS
330
B6
102
}
330
B6
100
AcDbScale
 70
     0
300
1:1
140
1.0
141
1.0
290
     1
  0
SCALE
  5
124
102
{ACAD_REACTORS
330
B6
102
}
330
B6
100
AcDbScale
 70
     0
300
1:2
140
1.0
141
2.0
290
     0
  0
SCALE
  5
125
102
{ACAD_REACTORS
330
B6
102
}
330
B6
100
AcDbScale
 70
     0
300
1:4
140
1.0
141
4.0
290
     0
  0
SCALE
  5
126
102
{ACAD_REACTORS
330
B6
102
}
330
B6
100
AcDbScale
 70
     0
300
1:5
140
1.0
141
5.0
290
     0
  0
SCALE
  5
127
102
{ACAD_REACTORS
330
B6
102
}
330
B6
100
AcDbScale
 70
     0
300
1:8
140
1.0
141
8.0
290
     0
  0
SCALE
  5
128
102
{ACAD_REACTORS
330
B6
102
}
330
B6
100
AcDbScale
 70
     0
300
1:10
140
1.0
141
10.0
290
     0
  0
SCALE
  5
129
102
{ACAD_REACTORS
330
B6
102
}
330
B6
100
AcDbScale
 70
     0
300
1:16
140
1.0
141
16.0
290
     0
  0
SCALE
  5
12A
102
{ACAD_REACTORS
330
B6
102
}
330
B6
100
AcDbScale
 70
     0
300
1:20
140
1.0
141
20.0
290
     0
  0
SCALE
  5
12B
102
{ACAD_REACTORS
330
B6
102
}
330
B6
100
AcDbScale
 70
     0
300
1:30
140
1.0
141
30.0
290
     0
  0
SCALE
  5
12C
102
{ACAD_REACTORS
330
B6
102
}
330
B6
100
AcDbScale
 70
     0
300
1:40
140
1.0
141
40.0
290
     0
  0
SCALE
  5
12D
102
{ACAD_REACTORS
330
B6
102
}
330
B6
100
AcDbScale
 70
     0
300
1:50
140
1.0
141
50.0
290
     0
  0
SCALE
  5
12E
102
{ACAD_REACTORS
330
B6
102
}
330
B6
100
AcDbScale
 70
     0
300
1:100
140
1.0
141
100.0
290
     0
  0
SCALE
  5
12F
102
{ACAD_REACTORS
330
B6
102
}
330
B6
100
AcDbScale
 70
     0
300
2:1
140
2.0
141
1.0
290
     0
  0
SCALE
  5
130
102
{ACAD_REACTORS
330
B6
102
}
330
B6
100
AcDbScale
 70
     0
300
4:1
140
4.0
141
1.0
290
     0
  0
SCALE
  5
131
102
{ACAD_REACTORS
330
B6
102
}
330
B6
100
AcDbScale
 70
     0
300
8:1
140
8.0
141
1.0
290
     0
  0
SCALE
  5
132
102
{ACAD_REACTORS
330
B6
102
}
330
B6
100
AcDbScale
 70
     0
300
10:1
140
10.0
141
1.0
290
     0
  0
SCALE
  5
133
102
{ACAD_REACTORS
330
B6
102
}
330
B6
100
AcDbScale
 70
     0
300
100:1
140
100.0
141
1.0
290
     0
  0
SCALE
  5
134
102
{ACAD_REACTORS
330
B6
102
}
330
B6
100
AcDbScale
 70
     0
300
1/128" = 1'-0"
140
0.0078125
141
12.0
290
     0
  0
SCALE
  5
135
102
{ACAD_REACTORS
330
B6
102
}
330
B6
100
AcDbScale
 70
     0
300
1/64" = 1'-0"
140
0.015625
141
12.0
290
     0
  0
SCALE
  5
136
102
{ACAD_REACTORS
330
B6
102
}
330
B6
100
AcDbScale
 70
     0
300
1/32" = 1'-0"
140
0.03125
141
12.0
290
     0
  0
SCALE
  5
137
102
{ACAD_REACTORS
330
B6
102
}
330
B6
100
AcDbScale
 70
     0
300
1/16" = 1'-0"
140
0.0625
141
12.0
290
     0
  0
SCALE
  5
138
102
{ACAD_REACTORS
330
B6
102
}
330
B6
100
AcDbScale
 70
     0
300
3/32" = 1'-0"
140
0.09375
141
12.0
290
     0
  0
SCALE
  5
139
102
{ACAD_REACTORS
330
B6
102
}
330
B6
100
AcDbScale
 70
     0
300
1/8" = 1'-0"
140
0.125
141
12.0
290
     0
  0
SCALE
  5
13A
102
{ACAD_REACTORS
330
B6
102
}
330
B6
100
AcDbScale
 70
     0
300
3/16" = 1'-0"
140
0.1875
141
12.0
290
     0
  0
SCALE
  5
13B
102
{ACAD_REACTORS
330
B6
102
}
330
B6
100
AcDbScale
 70
     0
300
1/4" = 1'-0"
140
0.25
141
12.0
290
     0
  0
SCALE
  5
13C
102
{ACAD_REACTORS
330
B6
102
}
330
B6
100
AcDbScale
 70
     0
300
3/8" = 1'-0"
140
0.375
141
12.0
290
     0
  0
SCALE
  5
13D
102
{ACAD_REACTORS
330
B6
102
}
330
B6
100
AcDbScale
 70
     0
300
1/2" = 1'-0"
140
0.5
141
12.0
290
     0
  0
SCALE
  5
13E
102
{ACAD_REACTORS
330
B6
102
}
330
B6
100
AcDbScale
 70
     0
300
3/4" = 1'-0"
140
0.75
141
12.0
290
     0
  0
SCALE
  5
13F
102
{ACAD_REACTORS
330
B6
102
}
330
B6
100
AcDbScale
 70
     0
300
1" = 1'-0"
140
1.0
141
12.0
290
     0
  0
SCALE
  5
140
102
{ACAD_REACTORS
330
B6
102
}
330
B6
100
AcDbScale
 70
     0
300
1-1/2" = 1'-0"
140
1.5
141
12.0
290
     0
  0
SCALE
  5
141
102
{ACAD_REACTORS
330
B6
102
}
330
B6
100
AcDbScale
 70
     0
300
3" = 1'-0"
140
3.0
141
12.0
290
     0
  0
SCALE
  5
142
102
{ACAD_REACTORS
330
B6
102
}
330
B6
100
AcDbScale
 70
     0
300
6" = 1'-0"
140
6.0
141
12.0
290
     0
  0
SCALE
  5
143
102
{ACAD_REACTORS
330
B6
102
}
330
B6
100
AcDbScale
 70
     0
300
1'-0" = 1'-0"
140
12.0
141
12.0
290
     0
  0
ACDBSECTIONVIEWSTYLE
  5
3B7
102
{ACAD_XDICTIONARY
360
F8A
102
}
102
{ACAD_REACTORS
330
3B6
102
}
330
3B6
100
AcDbModelDocViewStyle
 70
     0
  3
Imperial24
290
     0
100
AcDbSectionViewStyle
 70
     0
 71
     0
 90
       78
 71
     1
340
11
 40
0.24
340
0
340
0
 40
0.24
300
I, O, Q, S, X, Z
 40
0.48
 90
        3
 40
0.18
 90
        1
 71
     2
340
16
 90
       25
340
16
 90
       50
 40
0.24
 40
0.0
 40
0.24
 71
     3
340
11
 40
0.24
 90
        1
 40
0.75
 90
        1
300
%<\AcVar ViewType \f "%tc1">% %<\AcVar ViewSectionStartId>%-%<\AcVar ViewSectionEndId>%\PSCALE %<\AcVar ViewScale \f "%sn">%
 71
     4
300
ANSI31
 40
1.0
 90
        0
290
     0
290
     0
 90
        6
 40
0.0
 40
1.570796326794896
 40
0.2617993877991494
 40
1.308996938995747
 40
-0.2617993877991494
 40
1.832595714594045
  0
ACDBSECTIONVIEWSTYLE
  5
3C9
102
{ACAD_XDICTIONARY
360
F8E
102
}
102
{ACAD_REACTORS
330
3B6
102
}
330
3B6
100
AcDbModelDocViewStyle
 70
     0
  3
Metric50
290
     0
100
AcDbSectionViewStyle
 70
     0
 71
     0
 90
      102
 71
     1
340
11
 40
5.0
340
0
340
0
 40
5.0
300
I, O, Q, S, X, Z
 40
10.0
 90
        0
 40
2.5
 90
        0
 71
     2
340
16
 90
       25
340
16
 90
       50
 40
5.0
 40
2.5
 40
5.0
 71
     3
340
11
 40
5.0
 90
        0
 40
15.0
 90
        1
300
%<\AcVar ViewSectionStartId>%-%<\AcVar ViewSectionEndId>% (%<\AcVar ViewScale \f "%sn">%)
 71
     4
300
ANSI31
 40
1.0
 90
        0
290
     0
290
     0
 90
        6
 40
0.0
 40
1.570796326794896
 40
0.2617993877991494
 40
1.308996938995747
 40
-0.2617993877991494
 40
1.832595714594045
  0
TABLESTYLE
  5
87
102
{ACAD_XDICTIONARY
360
104
102
}
102
{ACAD_REACTORS
330
86
102
}
330
86
100
AcDbTableStyle
  3
Standard
 70
     0
 71
     0
 40
0.06
 41
0.06
280
     0
281
     0
  7
Standard
140
0.18
170
     2
 62
     0
 63
     7
283
     0
274
    -2
284
     1
 64
     0
275
    -2
285
     1
 65
     0
276
    -2
286
     1
 66
     0
277
    -2
287
     1
 67
     0
278
    -2
288
     1
 68
     0
279
    -2
289
     1
 69
     0
  7
Standard
140
0.25
170
     5
 62
     0
 63
     7
283
     0
274
    -2
284
     1
 64
     0
275
    -2
285
     1
 65
     0
276
    -2
286
     1
 66
     0
277
    -2
287
     1
 67
     0
278
    -2
288
     1
 68
     0
279
    -2
289
     1
 69
     0
  7
Standard
140
0.18
170
     5
 62
     0
 63
     7
283
     0
274
    -2
284
     1
 64
     0
275
    -2
285
     1
 65
     0
276
    -2
286
     1
 66
     0
277
    -2
287
     1
 67
     0
278
    -2
288
     1
 68
     0
279
    -2
289
     1
 69
     0
  0
VISUALSTYLE
  5
9F
102
{ACAD_XDICTIONARY
360
F60
102
}
102
{ACAD_REACTORS
330
99
102
}
330
99
100
AcDbVisualStyle
  2

 70
     4
 71
     0
 72
     2
 73
     1
 90
        0
 40
-0.6
 41
-30.0
 62
     5
 63
     7
 74
     1
 91
        4
 64
     7
 65
   257
 75
     1
175
     1
 42
1.0
 92
        0
 66
   257
 43
1.0
 76
     1
 77
     6
 78
     2
 67
     7
 79
     5
170
     0
171
     0
290
     0
174
     0
 93
        1
 44
0.0
173
     0
291
     0
 45
0.0
1001
ACAD
1000
AcDbSavedByObjectVersion
1070
     0
  0
VISUALSTYLE
  5
A1
102
{ACAD_XDICTIONARY
360
F64
102
}
102
{ACAD_REACTORS
330
99
102
}
330
99
100
AcDbVisualStyle
  2

 70
     6
 71
     1
 72
     2
 73
     2
 90
        0
 40
-0.6
 41
-30.0
 62
     5
 63
     7
 74
     2
 91
        2
 64
     7
 65
   257
 75
     2
175
     1
 42
40.0
 92
        0
 66
   257
 43
1.0
 76
     1
 77
     6
 78
     2
 67
     7
 79
     3
170
     0
171
     0
290
     0
174
     0
 93
        1
 44
0.0
173
     0
291
     0
 45
0.0
1001
ACAD
1000
AcDbSavedByObjectVersion
1070
     0
  0
VISUALSTYLE
  5
A0
102
{ACAD_XDICTIONARY
360
F62
102
}
102
{ACAD_REACTORS
330
99
102
}
330
99
100
AcDbVisualStyle
  2

 70
     5
 71
     0
 72
     2
 73
     1
 90
        0
 40
-0.6
 41
-30.0
 62
     5
 63
     7
 74
     1
 91
        4
 64
     7
 65
   257
 75
     1
175
     1
 42
1.0
 92
        0
 66
   257
 43
1.0
 76
     1
 77
     6
 78
     2
 67
     7
 79
     5
170
     0
171
     0
290
     0
174
     0
 93
        1
 44
0.0
173
     0
291
     0
 45
0.0
1001
ACAD
1000
AcDbSavedByObjectVersion
1070
     0
  0
VISUALSTYLE
  5
9E
102
{ACAD_XDICTIONARY
360
F5E
102
}
102
{ACAD_REACTORS
330
99
102
}
330
99
100
AcDbVisualStyle
  2

 70
     7
 71
     1
 72
     0
 73
     1
 90
        0
 40
-0.6
 41
-30.0
 62
     5
 63
     7
 74
     0
 91
        4
 64
     7
 65
   257
 75
     1
175
     1
 42
1.0
 92
        8
 66
     7
 43
1.0
 76
     1
 77
     6
 78
     2
 67
     7
 79
     5
170
     0
171
     0
290
     0
174
     0
 93
        1
 44
0.0
173
     0
291
     1
 45
0.0
1001
ACAD
1000
AcDbSavedByObjectVersion
1070
     0
  0
VISUALSTYLE
  5
A5
102
{ACAD_XDICTIONARY
360
F6C
102
}
102
{ACAD_REACTORS
330
99
102
}
330
99
100
AcDbVisualStyle
  2

 70
    12
 71
     2
 72
     2
 73
     1
 90
        0
 40
-0.6
 41
-30.0
 62
     5
 63
     7
 74
     1
 91
        4
 64
     7
 65
   257
 75
     1
175
     1
 42
1.0
 92
        8
 66
     7
 43
1.0
 76
     1
 77
     6
 78
     2
 67
     7
 79
     5
170
     0
171
     0
290
     0
174
     0
 93
        1
 44
50.0
173
     0
291
     1
 45
0.0
1001
ACAD
1000
AcDbSavedByObjectVersion
1070
     0
  0
VISUALSTYLE
  5
A9
102
{ACAD_XDICTIONARY
360
F74
102
}
102
{ACAD_REACTORS
330
99
102
}
330
99
100
AcDbVisualStyle
  2

 70
    16
 71
     2
 72
     2
 73
     3
 90
        0
 40
-0.6
 41
-30.0
 62
     5
 63
     8
 74
     1
 91
        4
 64
     7
 65
   257
 75
     1
175
     1
 42
1.0
 92
        8
 66
     8
 43
1.0
 76
     1
 77
     6
 78
     2
 67
     7
 79
     5
170
     0
171
     0
290
     0
174
     0
 93
        1
 44
0.0
173
     0
291
     1
 45
0.0
1001
ACAD
1000
AcDbSavedByObjectVersion
1070
     0
  0
VISUALSTYLE
  5
A2
102
{ACAD_XDICTIONARY
360
F66
102
}
102
{ACAD_REACTORS
330
99
102
}
330
99
100
AcDbVisualStyle
  2

 70
     9
 71
     3
 72
     2
 73
     1
 90
        0
 40
-0.6
 41
-30.0
 62
     5
 63
     7
 74
     2
 91
        2
 64
     7
 65
   257
 75
     1
175
     1
 42
40.0
 92
        8
 66
     7
 43
1.0
 76
     1
 77
     6
 78
     2
 67
     7
 79
     3
170
     0
171
     0
290
     0
174
     0
 93
        1
 44
0.0
173
     0
291
     0
 45
0.0
1001
ACAD
1000
AcDbSavedByObjectVersion
1070
     0
  0
VISUALSTYLE
  5
A4
102
{ACAD_XDICTIONARY
360
F6A
102
}
102
{ACAD_REACTORS
330
99
102
}
330
99
100
AcDbVisualStyle
  2

 70
    11
 71
     2
 72
     2
 73
     1
 90
        0
 40
-0.6
 41
-30.0
 62
     5
 63
     7
 74
     1
 91
        4
 64
     7
 65
   257
 75
     1
175
     1
 42
1.0
 92
        8
 66
     7
 43
1.0
 76
     1
 77
     6
 78
     2
 67
     7
 79
     5
170
     0
171
     0
290
     0
174
     0
 93
        1
 44
-50.0
173
     0
291
     1
 45
0.0
1001
ACAD
1000
AcDbSavedByObjectVersion
1070
     0
  0
VISUALSTYLE
  5
1FB
102
{ACAD_XDICTIONARY
360
F88
102
}
102
{ACAD_REACTORS
330
99
102
}
330
99
100
AcDbVisualStyle
  2

 70
    22
 71
     2
 72
     2
 73
     0
 90
        0
 40
-0.6
 41
-30.0
 62
     5
 63
     7
 74
     1
 91
        4
 64
     7
 65
   257
 75
     1
175
     1
 42
1.0
 92
        8
 66
     7
 43
1.0
 76
     1
 77
     6
 78
     2
 67
     7
 79
     5
170
     0
171
     0
290
     0
174
     0
 93
        1
 44
0.0
173
     0
291
     1
 45
0.0
1001
ACAD
1000
AcDbSavedByObjectVersion
1070
     0
  0
VISUALSTYLE
  5
A8
102
{ACAD_XDICTIONARY
360
F72
102
}
102
{ACAD_REACTORS
330
99
102
}
330
99
100
AcDbVisualStyle
  2

 70
    15
 71
     2
 72
     2
 73
     1
 90
        0
 40
-0.6
 41
-30.0
 62
     5
 63
     7
 74
     1
 91
        4
 64
     7
 65
   257
 75
     1
175
     1
 42
1.0
 92
        8
 66
     7
 43
1.0
 76
     1
 77
     6
 78
     2
 67
     7
 79
     5
170
     0
171
     0
290
     0
174
     0
 93
        1
 44
0.0
173
     0
291
     1
 45
0.0
1001
ACAD
1000
AcDbSavedByObjectVersion
1070
     0
  0
VISUALSTYLE
  5
9A
102
{ACAD_XDICTIONARY
360
F56
102
}
102
{ACAD_REACTORS
330
99
102
}
330
99
100
AcDbVisualStyle
  2

 70
     0
 71
     2
 72
     1
 73
     1
 90
        2
 40
-0.6
 41
30.0
 62
     5
 63
     7
 74
     0
 91
        4
 64
     7
 65
   257
 75
     1
175
     1
 42
1.0
 92
        8
 66
     7
 43
1.0
 76
     1
 77
     6
 78
     2
 67
     7
 79
     5
170
     0
171
     0
290
     0
174
     0
 93
        1
 44
0.0
173
     0
291
     1
 45
0.0
1001
ACAD
1000
AcDbSavedByObjectVersion
1070
     0
  0
VISUALSTYLE
  5
9B
102
{ACAD_XDICTIONARY
360
F58
102
}
102
{ACAD_REACTORS
330
99
102
}
330
99
100
AcDbVisualStyle
  2

 70
     1
 71
     2
 72
     1
 73
     1
 90
        2
 40
-0.6
 41
30.0
 62
     5
 63
     7
 74
     1
 91
        4
 64
     7
 65
   257
 75
     1
175
     1
 42
1.0
 92
        0
 66
   257
 43
1.0
 76
     1
 77
     6
 78
     2
 67
     7
 79
     5
170
     0
171
     0
290
     0
174
     0
 93
        1
 44
0.0
173
     0
291
     1
 45
0.0
1001
ACAD
1000
AcDbSavedByObjectVersion
1070
     0
  0
VISUALSTYLE
  5
9C
102
{ACAD_XDICTIONARY
360
F5A
102
}
102
{ACAD_REACTORS
330
99
102
}
330
99
100
AcDbVisualStyle
  2

 70
     2
 71
     2
 72
     2
 73
     1
 90
        2
 40
-0.6
 41
30.0
 62
     5
 63
     7
 74
     0
 91
        4
 64
     7
 65
   257
 75
     1
175
     1
 42
1.0
 92
        0
 66
     7
 43
1.0
 76
     1
 77
     6
 78
     2
 67
     7
 79
     5
170
     0
171
     0
290
     0
174
     0
 93
        1
 44
0.0
173
     0
291
     1
 45
0.0
1001
ACAD
1000
AcDbSavedByObjectVersion
1070
     0
  0
VISUALSTYLE
  5
9D
102
{ACAD_XDICTIONARY
360
F5C
102
}
102
{ACAD_REACTORS
330
99
102
}
330
99
100
AcDbVisualStyle
  2

 70
     3
 71
     2
 72
     2
 73
     1
 90
        2
 40
-0.6
 41
30.0
 62
     5
 63
     7
 74
     1
 91
        4
 64
     7
 65
   257
 75
     1
175
     1
 42
1.0
 92
        0
 66
   257
 43
1.0
 76
     1
 77
     6
 78
     2
 67
     7
 79
     5
170
     0
171
     0
290
     0
174
     0
 93
        1
 44
0.0
173
     0
291
     1
 45
0.0
1001
ACAD
1000
AcDbSavedByObjectVersion
1070
     0
  0
VISUALSTYLE
  5
1F3
102
{ACAD_XDICTIONARY
360
F78
102
}
102
{ACAD_REACTORS
330
99
102
}
330
99
100
AcDbVisualStyle
  2

 70
     6
 71
     1
 72
     2
 73
     2
 90
        0
 40
-0.6
 41
-30.0
 62
     5
 63
     7
 74
     2
 91
        2
 64
     7
 65
   257
 75
     2
175
     1
 42
40.0
 92
        0
 66
   257
 43
1.0
 76
     1
 77
     6
 78
     2
 67
     7
 79
     3
170
     0
171
     0
290
     0
174
     0
 93
        1
 44
0.0
173
     0
291
     0
 45
0.0
1001
ACAD
1000
AcDbSavedByObjectVersion
1070
     0
  0
VISUALSTYLE
  5
1F9
102
{ACAD_XDICTIONARY
360
F84
102
}
102
{ACAD_REACTORS
330
99
102
}
330
99
100
AcDbVisualStyle
  2

 70
    20
 71
     2
 72
     2
 73
     0
 90
        0
 40
-0.6
 41
-30.0
 62
     5
 63
     7
 74
     1
 91
        4
 64
     7
 65
   257
 75
     1
175
     1
 42
1.0
 92
       10
 66
     7
 43
1.0
 76
     1
 77
     6
 78
     2
 67
     7
 79
     5
170
     0
171
     0
290
     0
174
     0
 93
        1
 44
0.0
173
     0
291
     1
 45
0.0
1001
ACAD
1000
AcDbSavedByObjectVersion
1070
     0
  0
VISUALSTYLE
  5
A7
102
{ACAD_XDICTIONARY
360
F70
102
}
102
{ACAD_REACTORS
330
99
102
}
330
99
100
AcDbVisualStyle
  2

 70
    14
 71
     2
 72
     2
 73
     1
 90
        0
 40
-0.6
 41
-30.0
 62
     5
 63
     7
 74
     1
 91
        4
 64
     7
 65
   257
 75
     7
175
     7
 42
1.0
 92
        8
 66
     7
 43
1.0
 76
     1
 77
     6
 78
     2
 67
     7
 79
     5
170
     0
171
     0
290
     0
174
     0
 93
        1
 44
0.0
173
     0
291
     1
 45
0.0
1001
ACAD
1000
AcDbSavedByObjectVersion
1070
     0
  0
VISUALSTYLE
  5
1FA
102
{ACAD_XDICTIONARY
360
F86
102
}
102
{ACAD_REACTORS
330
99
102
}
330
99
100
AcDbVisualStyle
  2

 70
    21
 71
     2
 72
     2
 73
     0
 90
        0
 40
-0.6
 41
-30.0
 62
     5
 63
     7
 74
     1
 91
        4
 64
     7
 65
   257
 75
     1
175
     1
 42
1.0
 92
        9
 66
     7
 43
1.0
 76
     1
 77
     6
 78
     2
 67
     7
 79
     5
170
     0
171
     0
290
     0
174
     0
 93
        1
 44
0.0
173
     0
291
     1
 45
0.0
1001
ACAD
1000
AcDbSavedByObjectVersion
1070
     0
  0
VISUALSTYLE
  5
A3
102
{ACAD_XDICTIONARY
360
F68
102
}
102
{ACAD_REACTORS
330
99
102
}
330
99
100
AcDbVisualStyle
  2

 70
     8
 71
     2
 72
     2
 73
     1
 90
        0
 40
-0.6
 41
-30.0
 62
     5
 63
     7
 74
     1
 91
        0
 64
     7
 65
   257
 75
     1
175
     1
 42
1.0
 92
        8
 66
     8
 43
1.0
 76
     1
 77
     6
 78
     2
 67
     7
 79
     5
170
     0
171
     0
290
     0
174
     0
 93
       13
 44
0.0
173
     0
291
     0
 45
0.0
1001
ACAD
1000
AcDbSavedByObjectVersion
1070
     0
  0
VISUALSTYLE
  5
1F8
102
{ACAD_XDICTIONARY
360
F82
102
}
102
{ACAD_REACTORS
330
99
102
}
330
99
100
AcDbVisualStyle
  2

 70
    27
 71
     2
 72
     2
 73
     1
 90
        2
 40
-0.6
 41
30.0
 62
     5
 63
     7
 74
     0
 91
        4
 64
     7
 65
   257
 75
     1
175
     1
 42
1.0
 92
        8
 66
   257
 43
1.0
 76
     1
 77
     6
 78
     2
 67
     8
 79
     3
170
     0
171
     0
290
     0
174
     0
 93
        5
 44
0.0
173
     0
291
     0
 45
0.0
1001
ACAD
1000
AcDbSavedByObjectVersion
1070
     0
  0
VISUALSTYLE
  5
1F7
102
{ACAD_XDICTIONARY
360
F80
102
}
102
{ACAD_REACTORS
330
99
102
}
330
99
100
AcDbVisualStyle
  2

 70
    26
 71
     2
 72
     2
 73
     1
 90
        2
 40
-0.6
 41
30.0
 62
     5
 63
     7
 74
     1
 91
       10
 64
     7
 65
   257
 75
     2
175
     1
 42
1.0
 92
        8
 66
   257
 43
1.0
 76
     1
 77
     6
 78
     2
 67
     7
 79
     3
170
     0
171
     0
290
     0
174
     0
 93
        5
 44
0.0
173
     0
291
     0
 45
0.0
1001
ACAD
1000
AcDbSavedByObjectVersion
1070
     0
  0
VISUALSTYLE
  5
1F4
102
{ACAD_XDICTIONARY
360
F7A
102
}
102
{ACAD_REACTORS
330
99
102
}
330
99
100
AcDbVisualStyle
  2

 70
    23
 71
     2
 72
     2
 73
     3
 90
        0
 40
-0.6
 41
-30.0
 62
     5
 63
     7
 74
     2
 91
        2
 64
     7
 65
     7
 75
     1
175
     1
 42
40.0
 92
        8
 66
     7
 43
1.0
 76
     1
 77
     6
 78
     2
 67
     7
 79
     3
170
     0
171
     0
290
     0
174
     0
 93
        1
 44
0.0
173
     0
291
     0
 45
0.0
1001
ACAD
1000
AcDbSavedByObjectVersion
1070
     0
  0
VISUALSTYLE
  5
1F5
102
{ACAD_XDICTIONARY
360
F7C
102
}
102
{ACAD_REACTORS
330
99
102
}
330
99
100
AcDbVisualStyle
  2

 70
    24
 71
     1
 72
     2
 73
     2
 90
        0
 40
-0.6
 41
-30.0
 62
     5
 63
     7
 74
     2
 91
        2
 64
     7
 65
     7
 75
     1
175
     1
 42
40.0
 92
       11
 66
     7
 43
1.0
 76
     1
 77
     6
 78
     2
 67
     7
 79
     6
170
     0
171
     0
290
     0
174
     0
 93
        1
 44
0.0
173
     0
291
     0
 45
0.0
1001
ACAD
1000
AcDbSavedByObjectVersion
1070
     0
  0
VISUALSTYLE
  5
A6
102
{ACAD_XDICTIONARY
360
F6E
102
}
102
{ACAD_REACTORS
330
99
102
}
330
99
100
AcDbVisualStyle
  2

 70
    13
 71
     2
 72
     2
 73
     1
 90
        0
 40
-0.6
 41
-30.0
 62
     5
 63
     7
 74
     1
 91
        4
 64
     7
 65
   257
 75
     1
175
     1
 42
1.0
 92
       12
 66
     7
 43
1.0
 76
     1
 77
     6
 78
     2
 67
     7
 79
     5
170
     0
171
     0
290
     0
174
     0
 93
        1
 44
0.0
173
     0
291
     1
 45
0.0
1001
ACAD
1000
AcDbSavedByObjectVersion
1070
     0
  0
VISUALSTYLE
  5
1F2
102
{ACAD_XDICTIONARY
360
F76
102
}
102
{ACAD_REACTORS
330
99
102
}
330
99
100
AcDbVisualStyle
  2

 70
     5
 71
     0
 72
     2
 73
     0
 90
        0
 40
-0.6
 41
-30.0
 62
     5
 63
     7
 74
     1
 91
        4
 64
     7
 65
   257
 75
     1
175
     1
 42
1.0
 92
        0
 66
   257
 43
1.0
 76
     1
 77
     6
 78
     2
 67
     7
 79
     3
170
     0
171
     0
290
     0
174
     0
 93
        1
 44
0.0
173
     0
291
     0
 45
0.0
1001
ACAD
1000
AcDbSavedByObjectVersion
1070
     0
  0
VISUALSTYLE
  5
1F6
102
{ACAD_XDICTIONARY
360
F7E
102
}
102
{ACAD_REACTORS
330
99
102
}
330
99
100
AcDbVisualStyle
  2

 70
    25
 71
     2
 72
     2
 73
     1
 90
        1
 40
0.5
 41
-30.0
 62
     5
 63
     7
 74
     1
 91
        0
 64
     7
 65
   257
 75
     1
175
     1
 42
1.0
 92
        8
 66
     7
 43
1.0
 76
     1
 77
     6
 78
     2
 67
     7
 79
     3
170
     0
171
     0
290
     0
174
     0
 93
       13
 44
0.0
173
     0
291
     0
 45
0.0
1001
ACAD
1000
AcDbSavedByObjectVersion
1070
     0
  0
DICTIONARYVAR
  5
F0
102
{ACAD_REACTORS
330
66
102
}
330
66
100
DictionaryVariables
280
     0
  1
1:1
  0
DICTIONARYVAR
  5
EF
102
{ACAD_REACTORS
330
66
102
}
330
66
100
DictionaryVariables
280
     0
  1
STANDARD
  0
DICTIONARYVAR
  5
89
102
{ACAD_REACTORS
330
66
102
}
330
66
100
DictionaryVariables
280
     0
  1
STANDARD
  0
DICTIONARYVAR
  5
4DE
102
{ACAD_REACTORS
330
66
102
}
330
66
100
DictionaryVariables
280
     0
  1
Imperial24
  0
DICTIONARYVAR
  5
4DF
102
{ACAD_REACTORS
330
66
102
}
330
66
100
DictionaryVariables
280
     0
  1
Imperial24
  0
DICTIONARYVAR
  5
67
102
{ACAD_REACTORS
330
66
102
}
330
66
100
DictionaryVariables
280
     0
  1
2
  0
DICTIONARYVAR
  5
6B
102
{ACAD_REACTORS
330
66
102
}
330
66
100
DictionaryVariables
280
     0
  1
1
  0
DICTIONARYVAR
  5
3B0
102
{ACAD_REACTORS
330
66
102
}
330
66
100
DictionaryVariables
280
     0
  1
0
  0
DICTIONARYVAR
  5
14D
102
{ACAD_REACTORS
330
66
102
}
330
66
100
DictionaryVariables
280
     0
  1
0
  0
DICTIONARYVAR
  5
14E
102
{ACAD_REACTORS
330
66
102
}
330
66
100
DictionaryVariables
280
     0
  1
0
  0
DICTIONARYVAR
  5
3AE
102
{ACAD_REACTORS
330
66
102
}
330
66
100
DictionaryVariables
280
     0
  1
2
  0
DICTIONARYVAR
  5
5D2
102
{ACAD_REACTORS
330
66
102
}
330
66
100
DictionaryVariables
280
     0
  1
1.570796
  0
DICTIONARYVAR
  5
5D3
102
{ACAD_REACTORS
330
66
102
}
330
66
100
DictionaryVariables
280
     0
  1
1.570796
  0
DICTIONARYVAR
  5
3AD
102
{ACAD_REACTORS
330
66
102
}
330
66
100
DictionaryVariables
280
     0
  1
1
  0
DICTIONARYVAR
  5
3AF
102
{ACAD_REACTORS
330
66
102
}
330
66
100
DictionaryVariables
280
     0
  1
127
  0
DICTIONARYVAR
  5
5D4
102
{ACAD_REACTORS
330
66
102
}
330
66
100
DictionaryVariables
280
     0
  1
2
  0
DICTIONARY
  5
F8C
330
3B9
100
AcDbDictionary
280
     1
281
     1
  3
ACAD_XREC_ROUNDTRIP
360
F8D
  0
DICTIONARY
  5
F90
330
3CA
100
AcDbDictionary
280
     1
281
     1
  3
ACAD_XREC_ROUNDTRIP
360
F91
  0
DICTIONARY
  5
F51
330
59
100
AcDbDictionary
280
     1
281
     1
  3
ACAD_XREC_ROUNDTRIP
360
F52
  0
DICTIONARY
  5
F53
330
5E
100
AcDbDictionary
280
     1
281
     1
  3
ACAD_XREC_ROUNDTRIP
360
F54
  0
DICTIONARY
  5
F4F
330
22
100
AcDbDictionary
280
     1
281
     1
  3
ACAD_XREC_ROUNDTRIP
360
F50
  0
DICTIONARY
  5
4FF
330
97
100
AcDbDictionary
280
     1
281
     1
  3
ACAD_XREC_ROUNDTRIP
360
500
  0
DICTIONARY
  5
4FD
330
96
100
AcDbDictionary
280
     1
281
     1
  3
ACAD_XREC_ROUNDTRIP
360
4FE
  0
DICTIONARY
  5
110
330
98
100
AcDbDictionary
280
     1
281
     1
  3
ACAD_XREC_ROUNDTRIP
360
501
  3
BUMPTILE
360
112
  3
DIFFUSETILE
360
111
  3
OPACITYTILE
360
113
  3
REFLECTIONTILE
360
114
  0
DICTIONARY
  5
F8A
330
3B7
100
AcDbDictionary
280
     1
281
     1
  3
ACAD_XREC_ROUNDTRIP
360
F8B
  0
DICTIONARY
  5
F8E
330
3C9
100
AcDbDictionary
280
     1
281
     1
  3
ACAD_XREC_ROUNDTRIP
360
F8F
  0
DICTIONARY
  5
104
330
87
100
AcDbDictionary
280
     1
281
     1
  3
ACAD_ROUNDTRIP_2008_TABLESTYLE_CELLSTYLEMAP
360
F4A
  3
ACAD_XREC_ROUNDTRIP
360
F55
  0
DICTIONARY
  5
F60
330
9F
100
AcDbDictionary
280
     1
281
     1
  3
ACAD_XREC_ROUNDTRIP
360
F61
  0
DICTIONARY
  5
F64
330
A1
100
AcDbDictionary
280
     1
281
     1
  3
ACAD_XREC_ROUNDTRIP
360
F65
  0
DICTIONARY
  5
F62
330
A0
100
AcDbDictionary
280
     1
281
     1
  3
ACAD_XREC_ROUNDTRIP
360
F63
  0
DICTIONARY
  5
F5E
330
9E
100
AcDbDictionary
280
     1
281
     1
  3
ACAD_XREC_ROUNDTRIP
360
F5F
  0
DICTIONARY
  5
F6C
330
A5
100
AcDbDictionary
280
     1
281
     1
  3
ACAD_XREC_ROUNDTRIP
360
F6D
  0
DICTIONARY
  5
F74
330
A9
100
AcDbDictionary
280
     1
281
     1
  3
ACAD_XREC_ROUNDTRIP
360
F75
  0
DICTIONARY
  5
F66
330
A2
100
AcDbDictionary
280
     1
281
     1
  3
ACAD_XREC_ROUNDTRIP
360
F67
  0
DICTIONARY
  5
F6A
330
A4
100
AcDbDictionary
280
     1
281
     1
  3
ACAD_XREC_ROUNDTRIP
360
F6B
  0
DICTIONARY
  5
F88
330
1FB
100
AcDbDictionary
280
     1
281
     1
  3
ACAD_XREC_ROUNDTRIP
360
F89
  0
DICTIONARY
  5
F72
330
A8
100
AcDbDictionary
280
     1
281
     1
  3
ACAD_XREC_ROUNDTRIP
360
F73
  0
DICTIONARY
  5
F56
330
9A
100
AcDbDictionary
280
     1
281
     1
  3
ACAD_XREC_ROUNDTRIP
360
F57
  0
DICTIONARY
  5
F58
330
9B
100
AcDbDictionary
280
     1
281
     1
  3
ACAD_XREC_ROUNDTRIP
360
F59
  0
DICTIONARY
  5
F5A
330
9C
100
AcDbDictionary
280
     1
281
     1
  3
ACAD_XREC_ROUNDTRIP
360
F5B
  0
DICTIONARY
  5
F5C
330
9D
100
AcDbDictionary
280
     1
281
     1
  3
ACAD_XREC_ROUNDTRIP
360
F5D
  0
DICTIONARY
  5
F78
330
1F3
100
AcDbDictionary
280
     1
281
     1
  3
ACAD_XREC_ROUNDTRIP
360
F79
  0
DICTIONARY
  5
F84
330
1F9
100
AcDbDictionary
280
     1
281
     1
  3
ACAD_XREC_ROUNDTRIP
360
F85
  0
DICTIONARY
  5
F70
330
A7
100
AcDbDictionary
280
     1
281
     1
  3
ACAD_XREC_ROUNDTRIP
360
F71
  0
DICTIONARY
  5
F86
330
1FA
100
AcDbDictionary
280
     1
281
     1
  3
ACAD_XREC_ROUNDTRIP
360
F87
  0
DICTIONARY
  5
F68
330
A3
100
AcDbDictionary
280
     1
281
     1
  3
ACAD_XREC_ROUNDTRIP
360
F69
  0
DICTIONARY
  5
F82
330
1F8
100
AcDbDictionary
280
     1
281
     1
  3
ACAD_XREC_ROUNDTRIP
360
F83
  0
DICTIONARY
  5
F80
330
1F7
100
AcDbDictionary
280
     1
281
     1
  3
ACAD_XREC_ROUNDTRIP
360
F81
  0
DICTIONARY
  5
F7A
330
1F4
100
AcDbDictionary
280
     1
281
     1
  3
ACAD_XREC_ROUNDTRIP
360
F7B
  0
DICTIONARY
  5
F7C
330
1F5
100
AcDbDictionary
280
     1
281
     1
  3
ACAD_XREC_ROUNDTRIP
360
F7D
  0
DICTIONARY
  5
F6E
330
A6
100
AcDbDictionary
280
     1
281
     1
  3
ACAD_XREC_ROUNDTRIP
360
F6F
  0
DICTIONARY
  5
F76
330
1F2
100
AcDbDictionary
280
     1
281
     1
  3
ACAD_XREC_ROUNDTRIP
360
F77
  0
DICTIONARY
  5
F7E
330
1F6
100
AcDbDictionary
280
     1
281
     1
  3
ACAD_XREC_ROUNDTRIP
360
F7F
  0
XRECORD
  5
F8D
102
{ACAD_REACTORS
330
F8C
102
}
330
F8C
100
AcDbXrecord
280
     1
102
DISPLAYNAME
  1
Imperial24
102
FLAGS
 90
        0
  0
XRECORD
  5
F91
102
{ACAD_REACTORS
330
F90
102
}
330
F90
100
AcDbXrecord
280
     1
102
DISPLAYNAME
  1
Metric50
102
FLAGS
 90
        0
  0
XRECORD
  5
F52
102
{ACAD_REACTORS
330
F51
102
}
330
F51
100
AcDbXrecord
280
     1
102
SHADEPLOT
 70
     0
102
SHADEPLOTRESLEVEL
 70
     2
102
SHADEPLOTCUSTOMDPI
 70
   300
  0
XRECORD
  5
F54
102
{ACAD_REACTORS
330
F53
102
}
330
F53
100
AcDbXrecord
280
     1
102
SHADEPLOT
 70
     0
102
SHADEPLOTRESLEVEL
 70
     2
102
SHADEPLOTCUSTOMDPI
 70
   300
  0
XRECORD
  5
F50
102
{ACAD_REACTORS
330
F4F
102
}
330
F4F
100
AcDbXrecord
280
     1
102
SHADEPLOT
 70
     0
102
SHADEPLOTRESLEVEL
 70
     2
102
SHADEPLOTCUSTOMDPI
 70
   300
  0
XRECORD
  5
500
102
{ACAD_REACTORS
330
4FF
102
}
330
4FF
100
AcDbXrecord
280
     1
102
MATERIAL
148
0.0
149
0.0
149
0.0
 93
        0
 94
      127
282
     0
 72
     1
 77
     1
171
     1
175
     1
179
     1
273
     0
  0
XRECORD
  5
4FE
102
{ACAD_REACTORS
330
4FD
102
}
330
4FD
100
AcDbXrecord
280
     1
102
MATERIAL
148
0.0
149
0.0
149
0.0
 93
        0
 94
      127
282
     0
 72
     1
 77
     1
171
     1
175
     1
179
     1
273
     0
  0
XRECORD
  5
501
102
{ACAD_REACTORS
330
110
102
}
330
110
100
AcDbXrecord
280
     1
102
MATERIAL
148
0.0
149
0.0
149
0.0
 93
        0
 94
      127
282
     0
 72
     1
 77
     1
171
     1
175
     1
179
     1
273
     0
  0
XRECORD
  5
112
102
{ACAD_REACTORS
330
110
102
}
330
110
100
AcDbXrecord
280
     1
270
     1
271
     1
  0
XRECORD
  5
111
102
{ACAD_REACTORS
330
110
102
}
330
110
100
AcDbXrecord
280
     1
270
     1
271
     1
  0
XRECORD
  5
113
102
{ACAD_REACTORS
330
110
102
}
330
110
100
AcDbXrecord
280
     1
270
     1
271
     1
  0
XRECORD
  5
114
102
{ACAD_REACTORS
330
110
102
}
330
110
100
AcDbXrecord
280
     1
270
     1
271
     1
  0
XRECORD
  5
F8B
102
{ACAD_REACTORS
330
F8A
102
}
330
F8A
100
AcDbXrecord
280
     1
102
DISPLAYNAME
  1
Imperial24
102
FLAGS
 90
        0
  0
XRECORD
  5
F8F
102
{ACAD_REACTORS
330
F8E
102
}
330
F8E
100
AcDbXrecord
280
     1
102
DISPLAYNAME
  1
Metric50
102
FLAGS
 90
        0
  0
CELLSTYLEMAP
  5
F4A
102
{ACAD_REACTORS
330
104
102
}
330
104
100
AcDbCellStyleMap
 90
        3
300
CELLSTYLE
  1
TABLEFORMAT_BEGIN
 90
        5
170
     1
 91
        0
 92
    32768
 62
   257
 93
        1
300
CONTENTFORMAT
  1
CONTENTFORMAT_BEGIN
 90
        0
 91
        0
 92
      512
 93
        0
300

 40
0.0
140
1.0
 94
        5
 62
     0
340
11
144
0.25
309
CONTENTFORMAT_END
171
     1
301
MARGIN
  1
CELLMARGIN_BEGIN
 40
0.06
 40
0.06
 40
0.06
 40
0.06
 40
0.18
 40
0.18
309
CELLMARGIN_END
 94
        6
 95
        1
302
GRIDFORMAT
  1
GRIDFORMAT_BEGIN
 90
        0
 91
        1
 62
     0
 92
       -2
340
0
 93
        0
 40
0.045
309
GRIDFORMAT_END
 95
        2
302
GRIDFORMAT
  1
GRIDFORMAT_BEGIN
 90
        0
 91
        1
 62
     0
 92
       -2
340
0
 93
        0
 40
0.045
309
GRIDFORMAT_END
 95
        4
302
GRIDFORMAT
  1
GRIDFORMAT_BEGIN
 90
        0
 91
        1
 62
     0
 92
       -2
340
0
 93
        0
 40
0.045
309
GRIDFORMAT_END
 95
        8
302
GRIDFORMAT
  1
GRIDFORMAT_BEGIN
 90
        0
 91
        1
 62
     0
 92
       -2
340
0
 93
        0
 40
0.045
309
GRIDFORMAT_END
 95
       16
302
GRIDFORMAT
  1
GRIDFORMAT_BEGIN
 90
        0
 91
        1
 62
     0
 92
       -2
340
0
 93
        0
 40
0.045
309
GRIDFORMAT_END
 95
       32
302
GRIDFORMAT
  1
GRIDFORMAT_BEGIN
 90
        0
 91
        1
 62
     0
 92
       -2
340
0
 93
        0
 40
0.045
309
GRIDFORMAT_END
309
TABLEFORMAT_END
  1
CELLSTYLE_BEGIN
 90
        1
 91
        1
300
_TITLE
309
CELLSTYLE_END
300
CELLSTYLE
  1
TABLEFORMAT_BEGIN
 90
        5
170
     1
 91
        0
 92
        0
 62
   257
 93
        1
300
CONTENTFORMAT
  1
CONTENTFORMAT_BEGIN
 90
        0
 91
        0
 92
      512
 93
        0
300

 40
0.0
140
1.0
 94
        5
 62
     0
340
11
144
0.18
309
CONTENTFORMAT_END
171
     1
301
MARGIN
  1
CELLMARGIN_BEGIN
 40
0.06
 40
0.06
 40
0.06
 40
0.06
 40
0.18
 40
0.18
309
CELLMARGIN_END
 94
        6
 95
        1
302
GRIDFORMAT
  1
GRIDFORMAT_BEGIN
 90
        0
 91
        1
 62
     0
 92
       -2
340
0
 93
        0
 40
0.045
309
GRIDFORMAT_END
 95
        2
302
GRIDFORMAT
  1
GRIDFORMAT_BEGIN
 90
        0
 91
        1
 62
     0
 92
       -2
340
0
 93
        0
 40
0.045
309
GRIDFORMAT_END
 95
        4
302
GRIDFORMAT
  1
GRIDFORMAT_BEGIN
 90
        0
 91
        1
 62
     0
 92
       -2
340
0
 93
        0
 40
0.045
309
GRIDFORMAT_END
 95
        8
302
GRIDFORMAT
  1
GRIDFORMAT_BEGIN
 90
        0
 91
        1
 62
     0
 92
       -2
340
0
 93
        0
 40
0.045
309
GRIDFORMAT_END
 95
       16
302
GRIDFORMAT
  1
GRIDFORMAT_BEGIN
 90
        0
 91
        1
 62
     0
 92
       -2
340
0
 93
        0
 40
0.045
309
GRIDFORMAT_END
 95
       32
302
GRIDFORMAT
  1
GRIDFORMAT_BEGIN
 90
        0
 91
        1
 62
     0
 92
       -2
340
0
 93
        0
 40
0.045
309
GRIDFORMAT_END
309
TABLEFORMAT_END
  1
CELLSTYLE_BEGIN
 90
        2
 91
        1
300
_HEADER
309
CELLSTYLE_END
300
CELLSTYLE
  1
TABLEFORMAT_BEGIN
 90
        5
170
     1
 91
        0
 92
        0
 62
   257
 93
        1
300
CONTENTFORMAT
  1
CONTENTFORMAT_BEGIN
 90
        0
 91
        0
 92
      512
 93
        0
300

 40
0.0
140
1.0
 94
        2
 62
     0
340
11
144
0.18
309
CONTENTFORMAT_END
171
     1
301
MARGIN
  1
CELLMARGIN_BEGIN
 40
0.06
 40
0.06
 40
0.06
 40
0.06
 40
0.18
 40
0.18
309
CELLMARGIN_END
 94
        6
 95
        1
302
GRIDFORMAT
  1
GRIDFORMAT_BEGIN
 90
        0
 91
        1
 62
     0
 92
       -2
340
0
 93
        0
 40
0.045
309
GRIDFORMAT_END
 95
        2
302
GRIDFORMAT
  1
GRIDFORMAT_BEGIN
 90
        0
 91
        1
 62
     0
 92
       -2
340
0
 93
        0
 40
0.045
309
GRIDFORMAT_END
 95
        4
302
GRIDFORMAT
  1
GRIDFORMAT_BEGIN
 90
        0
 91
        1
 62
     0
 92
       -2
340
0
 93
        0
 40
0.045
309
GRIDFORMAT_END
 95
        8
302
GRIDFORMAT
  1
GRIDFORMAT_BEGIN
 90
        0
 91
        1
 62
     0
 92
       -2
340
0
 93
        0
 40
0.045
309
GRIDFORMAT_END
 95
       16
302
GRIDFORMAT
  1
GRIDFORMAT_BEGIN
 90
        0
 91
        1
 62
     0
 92
       -2
340
0
 93
        0
 40
0.045
309
GRIDFORMAT_END
 95
       32
302
GRIDFORMAT
  1
GRIDFORMAT_BEGIN
 90
        0
 91
        1
 62
     0
 92
       -2
340
0
 93
        0
 40
0.045
309
GRIDFORMAT_END
309
TABLEFORMAT_END
  1
CELLSTYLE_BEGIN
 90
        3
 91
        2
300
_DATA
309
CELLSTYLE_END
  0
XRECORD
  5
F55
102
{ACAD_REACTORS
330
104
102
}
330
104
100
AcDbXrecord
280
     1
102
ACAD_ROUNDTRIP_PRE2007_TABLESTYLE
 90
      512
 91
        0
  1

 92
      512
 93
        0
  2

 94
      512
 95
        0
  3

  0
XRECORD
  5
F61
102
{ACAD_REACTORS
330
F60
102
}
330
F60
100
AcDbXrecord
280
     1
102
RTVSPost2010Prop28
280
     1
102
RTVSPost2010PropOp28
 70
     1
102
RTVSPost2010Prop29
280
     1
102
RTVSPost2010PropOp29
 70
     1
102
RTVSPost2010Prop30
280
     0
102
RTVSPost2010PropOp30
 70
     1
102
RTVSPost2010Prop31
280
     0
102
RTVSPost2010PropOp31
 70
     1
102
RTVSPost2010Prop32
280
     0
102
RTVSPost2010PropOp32
 70
     1
102
RTVSPost2010Prop33
280
     0
102
RTVSPost2010PropOp33
 70
     1
102
RTVSPost2010Prop34
280
     0
102
RTVSPost2010PropOp34
 70
     1
102
RTVSPost2010Prop35
280
     0
102
RTVSPost2010PropOp35
 70
     1
102
RTVSPost2010Prop36
280
     0
102
RTVSPost2010PropOp36
 70
     1
102
RTVSPost2010Prop37
 90
       50
102
RTVSPost2010PropOp37
 70
     1
102
RTVSPost2010Prop38
140
0.0
102
RTVSPost2010PropOp38
 70
     1
102
RTVSPost2010Prop39
140
1.0
102
RTVSPost2010PropOp39
 70
     1
102
RTVSPost2010Prop40
 90
        0
102
RTVSPost2010PropOp40
 70
     1
102
RTVSPost2010Prop41ColorIndex
 90
       18
102
RTVSPost2010Prop41ColorRGB
 90
        0
102
RTVSPost2010PropOp41
 70
     1
102
RTVSPost2010Prop42
 90
       50
102
RTVSPost2010PropOp42
 70
     1
102
RTVSPost2010Prop43
 90
        3
102
RTVSPost2010PropOp43
 70
     1
102
RTVSPost2010Prop44ColorIndex
 90
        5
102
RTVSPost2010Prop44ColorRGB
 90
      255
102
RTVSPost2010PropOp44
 70
     1
102
RTVSPost2010Prop45
280
     0
102
RTVSPost2010PropOp45
 70
     1
102
RTVSPost2010Prop46
 90
       50
102
RTVSPost2010PropOp46
 70
     1
102
RTVSPost2010Prop47
 90
       50
102
RTVSPost2010PropOp47
 70
     1
102
RTVSPost2010Prop48
 90
       50
102
RTVSPost2010PropOp48
 70
     1
102
RTVSPost2010Prop49
280
     0
102
RTVSPost2010PropOp49
 70
     1
102
RTVSPost2010Prop50
 90
       50
102
RTVSPost2010PropOp50
 70
     1
102
RTVSPost2010Prop51ColorIndex
 90
      256
102
RTVSPost2010Prop51ColorRGB
 90
-16777216
102
RTVSPost2010PropOp51
 70
     0
102
RTVSPost2010Prop52
140
1.0
102
RTVSPost2010PropOp52
 70
     0
102
RTVSPost2010Prop53
 90
        2
102
RTVSPost2010PropOp53
 70
     1
102
RTVSPost2010Prop54
  1
strokes_ogs.tif
102
RTVSPost2010PropOp54
 70
     1
102
RTVSPost2010Prop55
280
     0
102
RTVSPost2010PropOp55
 70
     1
102
RTVSPost2010Prop56
140
1.0
102
RTVSPost2010PropOp56
 70
     1
102
RTVSPost2010Prop57
140
1.0
102
RTVSPost2010PropOp57
 70
     1
102
RTVSPropertyOp0
 70
     1
102
RTVSPropertyOp1
 70
     1
102
RTVSPropertyOp2
 70
     1
102
RTVSPropertyOp3
 70
     1
102
RTVSPropertyOp4
 70
     1
102
RTVSPropertyOp5
 70
     1
102
RTVSPropertyOp6
 70
     1
102
RTVSPropertyOp7
 70
     1
102
RTVSPropertyOp8
 70
     1
102
RTVSPropertyOp9
 70
     1
102
RTVSPropertyOp10
 70
     1
102
RTVSPropertyOp11
 70
     1
102
RTVSPropertyOp12
 70
     1
102
RTVSPropertyOp13
 70
     1
102
RTVSPropertyOp14
 70
     1
102
RTVSPropertyOp15
 70
     1
102
RTVSPropertyOp16
 70
     1
102
RTVSPropertyOp17
 70
     1
102
RTVSPropertyOp18
 70
     1
102
RTVSPropertyOp19
 70
     1
102
RTVSPropertyOp20
 70
     1
102
RTVSPropertyOp21
 70
     1
102
RTVSPropertyOp22
 70
     1
102
RTVSPropertyOp23
 70
     1
102
RTVSPropertyOp24
 70
     1
102
RTVSPropertyOp25
 70
     1
102
RTVSPropertyOp26
 70
     1
102
RTVSPropertyOp27
 70
     1
102
RTVSPropertyOp28
 70
     1
102
RTVSPropertyOp29
 70
     1
102
RTVSPropertyOp30
 70
     1
102
RTVSPropertyOp31
 70
     1
102
RTVSPropertyOp32
 70
     1
102
RTVSPropertyOp33
 70
     1
102
RTVSPropertyOp34
 70
     1
102
RTVSPropertyOp35
 70
     1
102
RTVSPropertyOp36
 70
     1
102
RTVSPropertyOp37
 70
     1
102
RTVSPropertyOp38
 70
     1
102
RTVSPropertyOp39
 70
     1
102
RTVSPropertyOp40
 70
     1
102
RTVSPropertyOp41
 70
     1
102
RTVSPropertyOp42
 70
     1
102
RTVSPropertyOp43
 70
     1
102
RTVSPropertyOp44
 70
     1
102
RTVSPropertyOp45
 70
     1
102
RTVSPropertyOp46
 70
     1
102
RTVSPropertyOp47
 70
     1
102
RTVSPropertyOp48
 70
     1
102
RTVSPropertyOp49
 70
     1
102
RTVSPropertyOp50
 70
     1
102
RTVSPropertyOp51
 70
     0
102
RTVSPropertyOp52
 70
     0
102
RTVSPropertyOp53
 70
     1
102
RTVSPropertyOp54
 70
     1
102
RTVSPropertyOp55
 70
     1
102
RTVSPropertyOp56
 70
     1
102
RTVSPropertyOp57
 70
     1
102
RTVSPropertyOp58
 70
     1
102
RTVSPropertyOp59
 70
     1
102
RTVSPropertyOp60
 70
     1
102
RTVSPropertyOp61
 70
     1
102
RTVSPropertyOp62
 70
     1
  0
XRECORD
  5
F65
102
{ACAD_REACTORS
330
F64
102
}
330
F64
100
AcDbXrecord
280
     1
102
RTVSPost2010Prop28
280
     0
102
RTVSPost2010PropOp28
 70
     1
102
RTVSPost2010Prop29
280
     1
102
RTVSPost2010PropOp29
 70
     1
102
RTVSPost2010Prop30
280
     1
102
RTVSPost2010PropOp30
 70
     1
102
RTVSPost2010Prop31
280
     0
102
RTVSPost2010PropOp31
 70
     1
102
RTVSPost2010Prop32
280
     0
102
RTVSPost2010PropOp32
 70
     1
102
RTVSPost2010Prop33
280
     0
102
RTVSPost2010PropOp33
 70
     1
102
RTVSPost2010Prop34
280
     0
102
RTVSPost2010PropOp34
 70
     1
102
RTVSPost2010Prop35
280
     0
102
RTVSPost2010PropOp35
 70
     1
102
RTVSPost2010Prop36
280
     0
102
RTVSPost2010PropOp36
 70
     1
102
RTVSPost2010Prop37
 90
       50
102
RTVSPost2010PropOp37
 70
     1
102
RTVSPost2010Prop38
140
0.0
102
RTVSPost2010PropOp38
 70
     1
102
RTVSPost2010Prop39
140
1.0
102
RTVSPost2010PropOp39
 70
     1
102
RTVSPost2010Prop40
 90
        0
102
RTVSPost2010PropOp40
 70
     1
102
RTVSPost2010Prop41ColorIndex
 90
       18
102
RTVSPost2010Prop41ColorRGB
 90
        0
102
RTVSPost2010PropOp41
 70
     1
102
RTVSPost2010Prop42
 90
       50
102
RTVSPost2010PropOp42
 70
     1
102
RTVSPost2010Prop43
 90
        3
102
RTVSPost2010PropOp43
 70
     1
102
RTVSPost2010Prop44ColorIndex
 90
        5
102
RTVSPost2010Prop44ColorRGB
 90
      255
102
RTVSPost2010PropOp44
 70
     1
102
RTVSPost2010Prop45
280
     0
102
RTVSPost2010PropOp45
 70
     1
102
RTVSPost2010Prop46
 90
       50
102
RTVSPost2010PropOp46
 70
     1
102
RTVSPost2010Prop47
 90
       50
102
RTVSPost2010PropOp47
 70
     1
102
RTVSPost2010Prop48
 90
       50
102
RTVSPost2010PropOp48
 70
     1
102
RTVSPost2010Prop49
280
     0
102
RTVSPost2010PropOp49
 70
     1
102
RTVSPost2010Prop50
 90
       50
102
RTVSPost2010PropOp50
 70
     1
102
RTVSPost2010Prop51ColorIndex
 90
      256
102
RTVSPost2010Prop51ColorRGB
 90
-16777216
102
RTVSPost2010PropOp51
 70
     0
102
RTVSPost2010Prop52
140
1.0
102
RTVSPost2010PropOp52
 70
     0
102
RTVSPost2010Prop53
 90
        2
102
RTVSPost2010PropOp53
 70
     1
102
RTVSPost2010Prop54
  1
strokes_ogs.tif
102
RTVSPost2010PropOp54
 70
     1
102
RTVSPost2010Prop55
280
     0
102
RTVSPost2010PropOp55
 70
     1
102
RTVSPost2010Prop56
140
1.0
102
RTVSPost2010PropOp56
 70
     1
102
RTVSPost2010Prop57
140
1.0
102
RTVSPost2010PropOp57
 70
     1
102
RTVSPropertyOp0
 70
     1
102
RTVSPropertyOp1
 70
     1
102
RTVSPropertyOp2
 70
     1
102
RTVSPropertyOp3
 70
     1
102
RTVSPropertyOp4
 70
     1
102
RTVSPropertyOp5
 70
     1
102
RTVSPropertyOp6
 70
     1
102
RTVSPropertyOp7
 70
     1
102
RTVSPropertyOp8
 70
     1
102
RTVSPropertyOp9
 70
     1
102
RTVSPropertyOp10
 70
     1
102
RTVSPropertyOp11
 70
     1
102
RTVSPropertyOp12
 70
     1
102
RTVSPropertyOp13
 70
     1
102
RTVSPropertyOp14
 70
     1
102
RTVSPropertyOp15
 70
     1
102
RTVSPropertyOp16
 70
     1
102
RTVSPropertyOp17
 70
     1
102
RTVSPropertyOp18
 70
     1
102
RTVSPropertyOp19
 70
     1
102
RTVSPropertyOp20
 70
     1
102
RTVSPropertyOp21
 70
     1
102
RTVSPropertyOp22
 70
     1
102
RTVSPropertyOp23
 70
     1
102
RTVSPropertyOp24
 70
     1
102
RTVSPropertyOp25
 70
     1
102
RTVSPropertyOp26
 70
     1
102
RTVSPropertyOp27
 70
     1
102
RTVSPropertyOp28
 70
     1
102
RTVSPropertyOp29
 70
     1
102
RTVSPropertyOp30
 70
     1
102
RTVSPropertyOp31
 70
     1
102
RTVSPropertyOp32
 70
     1
102
RTVSPropertyOp33
 70
     1
102
RTVSPropertyOp34
 70
     1
102
RTVSPropertyOp35
 70
     1
102
RTVSPropertyOp36
 70
     1
102
RTVSPropertyOp37
 70
     1
102
RTVSPropertyOp38
 70
     1
102
RTVSPropertyOp39
 70
     1
102
RTVSPropertyOp40
 70
     1
102
RTVSPropertyOp41
 70
     1
102
RTVSPropertyOp42
 70
     1
102
RTVSPropertyOp43
 70
     1
102
RTVSPropertyOp44
 70
     1
102
RTVSPropertyOp45
 70
     1
102
RTVSPropertyOp46
 70
     1
102
RTVSPropertyOp47
 70
     1
102
RTVSPropertyOp48
 70
     1
102
RTVSPropertyOp49
 70
     1
102
RTVSPropertyOp50
 70
     1
102
RTVSPropertyOp51
 70
     0
102
RTVSPropertyOp52
 70
     0
102
RTVSPropertyOp53
 70
     1
102
RTVSPropertyOp54
 70
     1
102
RTVSPropertyOp55
 70
     1
102
RTVSPropertyOp56
 70
     1
102
RTVSPropertyOp57
 70
     1
102
RTVSPropertyOp58
 70
     1
102
RTVSPropertyOp59
 70
     1
102
RTVSPropertyOp60
 70
     1
102
RTVSPropertyOp61
 70
     1
102
RTVSPropertyOp62
 70
     1
  0
XRECORD
  5
F63
102
{ACAD_REACTORS
330
F62
102
}
330
F62
100
AcDbXrecord
280
     1
102
RTVSPost2010Prop28
280
     0
102
RTVSPost2010PropOp28
 70
     1
102
RTVSPost2010Prop29
280
     1
102
RTVSPost2010PropOp29
 70
     1
102
RTVSPost2010Prop30
280
     1
102
RTVSPost2010PropOp30
 70
     1
102
RTVSPost2010Prop31
280
     0
102
RTVSPost2010PropOp31
 70
     1
102
RTVSPost2010Prop32
280
     0
102
RTVSPost2010PropOp32
 70
     1
102
RTVSPost2010Prop33
280
     0
102
RTVSPost2010PropOp33
 70
     1
102
RTVSPost2010Prop34
280
     0
102
RTVSPost2010PropOp34
 70
     1
102
RTVSPost2010Prop35
280
     0
102
RTVSPost2010PropOp35
 70
     1
102
RTVSPost2010Prop36
280
     0
102
RTVSPost2010PropOp36
 70
     1
102
RTVSPost2010Prop37
 90
       50
102
RTVSPost2010PropOp37
 70
     1
102
RTVSPost2010Prop38
140
0.0
102
RTVSPost2010PropOp38
 70
     1
102
RTVSPost2010Prop39
140
1.0
102
RTVSPost2010PropOp39
 70
     1
102
RTVSPost2010Prop40
 90
        0
102
RTVSPost2010PropOp40
 70
     1
102
RTVSPost2010Prop41ColorIndex
 90
       18
102
RTVSPost2010Prop41ColorRGB
 90
        0
102
RTVSPost2010PropOp41
 70
     1
102
RTVSPost2010Prop42
 90
       50
102
RTVSPost2010PropOp42
 70
     1
102
RTVSPost2010Prop43
 90
        3
102
RTVSPost2010PropOp43
 70
     1
102
RTVSPost2010Prop44ColorIndex
 90
        5
102
RTVSPost2010Prop44ColorRGB
 90
      255
102
RTVSPost2010PropOp44
 70
     1
102
RTVSPost2010Prop45
280
     0
102
RTVSPost2010PropOp45
 70
     1
102
RTVSPost2010Prop46
 90
       50
102
RTVSPost2010PropOp46
 70
     1
102
RTVSPost2010Prop47
 90
       50
102
RTVSPost2010PropOp47
 70
     1
102
RTVSPost2010Prop48
 90
       50
102
RTVSPost2010PropOp48
 70
     1
102
RTVSPost2010Prop49
280
     0
102
RTVSPost2010PropOp49
 70
     1
102
RTVSPost2010Prop50
 90
       50
102
RTVSPost2010PropOp50
 70
     1
102
RTVSPost2010Prop51ColorIndex
 90
      256
102
RTVSPost2010Prop51ColorRGB
 90
-16777216
102
RTVSPost2010PropOp51
 70
     0
102
RTVSPost2010Prop52
140
1.0
102
RTVSPost2010PropOp52
 70
     0
102
RTVSPost2010Prop53
 90
        2
102
RTVSPost2010PropOp53
 70
     1
102
RTVSPost2010Prop54
  1
strokes_ogs.tif
102
RTVSPost2010PropOp54
 70
     1
102
RTVSPost2010Prop55
280
     0
102
RTVSPost2010PropOp55
 70
     1
102
RTVSPost2010Prop56
140
1.0
102
RTVSPost2010PropOp56
 70
     1
102
RTVSPost2010Prop57
140
1.0
102
RTVSPost2010PropOp57
 70
     1
102
RTVSPropertyOp0
 70
     1
102
RTVSPropertyOp1
 70
     1
102
RTVSPropertyOp2
 70
     1
102
RTVSPropertyOp3
 70
     1
102
RTVSPropertyOp4
 70
     1
102
RTVSPropertyOp5
 70
     1
102
RTVSPropertyOp6
 70
     1
102
RTVSPropertyOp7
 70
     1
102
RTVSPropertyOp8
 70
     1
102
RTVSPropertyOp9
 70
     1
102
RTVSPropertyOp10
 70
     1
102
RTVSPropertyOp11
 70
     1
102
RTVSPropertyOp12
 70
     1
102
RTVSPropertyOp13
 70
     1
102
RTVSPropertyOp14
 70
     1
102
RTVSPropertyOp15
 70
     1
102
RTVSPropertyOp16
 70
     1
102
RTVSPropertyOp17
 70
     1
102
RTVSPropertyOp18
 70
     1
102
RTVSPropertyOp19
 70
     1
102
RTVSPropertyOp20
 70
     1
102
RTVSPropertyOp21
 70
     1
102
RTVSPropertyOp22
 70
     1
102
RTVSPropertyOp23
 70
     1
102
RTVSPropertyOp24
 70
     1
102
RTVSPropertyOp25
 70
     1
102
RTVSPropertyOp26
 70
     1
102
RTVSPropertyOp27
 70
     1
102
RTVSPropertyOp28
 70
     1
102
RTVSPropertyOp29
 70
     1
102
RTVSPropertyOp30
 70
     1
102
RTVSPropertyOp31
 70
     1
102
RTVSPropertyOp32
 70
     1
102
RTVSPropertyOp33
 70
     1
102
RTVSPropertyOp34
 70
     1
102
RTVSPropertyOp35
 70
     1
102
RTVSPropertyOp36
 70
     1
102
RTVSPropertyOp37
 70
     1
102
RTVSPropertyOp38
 70
     1
102
RTVSPropertyOp39
 70
     1
102
RTVSPropertyOp40
 70
     1
102
RTVSPropertyOp41
 70
     1
102
RTVSPropertyOp42
 70
     1
102
RTVSPropertyOp43
 70
     1
102
RTVSPropertyOp44
 70
     1
102
RTVSPropertyOp45
 70
     1
102
RTVSPropertyOp46
 70
     1
102
RTVSPropertyOp47
 70
     1
102
RTVSPropertyOp48
 70
     1
102
RTVSPropertyOp49
 70
     1
102
RTVSPropertyOp50
 70
     1
102
RTVSPropertyOp51
 70
     0
102
RTVSPropertyOp52
 70
     0
102
RTVSPropertyOp53
 70
     1
102
RTVSPropertyOp54
 70
     1
102
RTVSPropertyOp55
 70
     1
102
RTVSPropertyOp56
 70
     1
102
RTVSPropertyOp57
 70
     1
102
RTVSPropertyOp58
 70
     1
102
RTVSPropertyOp59
 70
     1
102
RTVSPropertyOp60
 70
     1
102
RTVSPropertyOp61
 70
     1
102
RTVSPropertyOp62
 70
     1
  0
XRECORD
  5
F5F
102
{ACAD_REACTORS
330
F5E
102
}
330
F5E
100
AcDbXrecord
280
     1
102
RTVSPost2010Prop28
280
     0
102
RTVSPost2010PropOp28
 70
     1
102
RTVSPost2010Prop29
280
     1
102
RTVSPost2010PropOp29
 70
     1
102
RTVSPost2010Prop30
280
     1
102
RTVSPost2010PropOp30
 70
     1
102
RTVSPost2010Prop31
280
     0
102
RTVSPost2010PropOp31
 70
     1
102
RTVSPost2010Prop32
280
     0
102
RTVSPost2010PropOp32
 70
     1
102
RTVSPost2010Prop33
280
     0
102
RTVSPost2010PropOp33
 70
     1
102
RTVSPost2010Prop34
280
     0
102
RTVSPost2010PropOp34
 70
     1
102
RTVSPost2010Prop35
280
     0
102
RTVSPost2010PropOp35
 70
     1
102
RTVSPost2010Prop36
280
     0
102
RTVSPost2010PropOp36
 70
     1
102
RTVSPost2010Prop37
 90
       50
102
RTVSPost2010PropOp37
 70
     1
102
RTVSPost2010Prop38
140
0.0
102
RTVSPost2010PropOp38
 70
     1
102
RTVSPost2010Prop39
140
1.0
102
RTVSPost2010PropOp39
 70
     1
102
RTVSPost2010Prop40
 90
        0
102
RTVSPost2010PropOp40
 70
     1
102
RTVSPost2010Prop41ColorIndex
 90
       18
102
RTVSPost2010Prop41ColorRGB
 90
        0
102
RTVSPost2010PropOp41
 70
     1
102
RTVSPost2010Prop42
 90
       50
102
RTVSPost2010PropOp42
 70
     1
102
RTVSPost2010Prop43
 90
        3
102
RTVSPost2010PropOp43
 70
     1
102
RTVSPost2010Prop44ColorIndex
 90
        5
102
RTVSPost2010Prop44ColorRGB
 90
      255
102
RTVSPost2010PropOp44
 70
     1
102
RTVSPost2010Prop45
280
     0
102
RTVSPost2010PropOp45
 70
     1
102
RTVSPost2010Prop46
 90
       50
102
RTVSPost2010PropOp46
 70
     1
102
RTVSPost2010Prop47
 90
       50
102
RTVSPost2010PropOp47
 70
     1
102
RTVSPost2010Prop48
 90
       50
102
RTVSPost2010PropOp48
 70
     1
102
RTVSPost2010Prop49
280
     0
102
RTVSPost2010PropOp49
 70
     1
102
RTVSPost2010Prop50
 90
       50
102
RTVSPost2010PropOp50
 70
     1
102
RTVSPost2010Prop51ColorIndex
 90
      256
102
RTVSPost2010Prop51ColorRGB
 90
-16777216
102
RTVSPost2010PropOp51
 70
     0
102
RTVSPost2010Prop52
140
1.0
102
RTVSPost2010PropOp52
 70
     0
102
RTVSPost2010Prop53
 90
        2
102
RTVSPost2010PropOp53
 70
     1
102
RTVSPost2010Prop54
  1
strokes_ogs.tif
102
RTVSPost2010PropOp54
 70
     1
102
RTVSPost2010Prop55
280
     0
102
RTVSPost2010PropOp55
 70
     1
102
RTVSPost2010Prop56
140
1.0
102
RTVSPost2010PropOp56
 70
     1
102
RTVSPost2010Prop57
140
1.0
102
RTVSPost2010PropOp57
 70
     1
102
RTVSPropertyOp0
 70
     1
102
RTVSPropertyOp1
 70
     1
102
RTVSPropertyOp2
 70
     1
102
RTVSPropertyOp3
 70
     1
102
RTVSPropertyOp4
 70
     1
102
RTVSPropertyOp5
 70
     1
102
RTVSPropertyOp6
 70
     1
102
RTVSPropertyOp7
 70
     1
102
RTVSPropertyOp8
 70
     1
102
RTVSPropertyOp9
 70
     1
102
RTVSPropertyOp10
 70
     1
102
RTVSPropertyOp11
 70
     1
102
RTVSPropertyOp12
 70
     1
102
RTVSPropertyOp13
 70
     1
102
RTVSPropertyOp14
 70
     1
102
RTVSPropertyOp15
 70
     1
102
RTVSPropertyOp16
 70
     1
102
RTVSPropertyOp17
 70
     1
102
RTVSPropertyOp18
 70
     1
102
RTVSPropertyOp19
 70
     1
102
RTVSPropertyOp20
 70
     1
102
RTVSPropertyOp21
 70
     1
102
RTVSPropertyOp22
 70
     1
102
RTVSPropertyOp23
 70
     1
102
RTVSPropertyOp24
 70
     1
102
RTVSPropertyOp25
 70
     1
102
RTVSPropertyOp26
 70
     1
102
RTVSPropertyOp27
 70
     1
102
RTVSPropertyOp28
 70
     1
102
RTVSPropertyOp29
 70
     1
102
RTVSPropertyOp30
 70
     1
102
RTVSPropertyOp31
 70
     1
102
RTVSPropertyOp32
 70
     1
102
RTVSPropertyOp33
 70
     1
102
RTVSPropertyOp34
 70
     1
102
RTVSPropertyOp35
 70
     1
102
RTVSPropertyOp36
 70
     1
102
RTVSPropertyOp37
 70
     1
102
RTVSPropertyOp38
 70
     1
102
RTVSPropertyOp39
 70
     1
102
RTVSPropertyOp40
 70
     1
102
RTVSPropertyOp41
 70
     1
102
RTVSPropertyOp42
 70
     1
102
RTVSPropertyOp43
 70
     1
102
RTVSPropertyOp44
 70
     1
102
RTVSPropertyOp45
 70
     1
102
RTVSPropertyOp46
 70
     1
102
RTVSPropertyOp47
 70
     1
102
RTVSPropertyOp48
 70
     1
102
RTVSPropertyOp49
 70
     1
102
RTVSPropertyOp50
 70
     1
102
RTVSPropertyOp51
 70
     0
102
RTVSPropertyOp52
 70
     0
102
RTVSPropertyOp53
 70
     1
102
RTVSPropertyOp54
 70
     1
102
RTVSPropertyOp55
 70
     1
102
RTVSPropertyOp56
 70
     1
102
RTVSPropertyOp57
 70
     1
102
RTVSPropertyOp58
 70
     1
102
RTVSPropertyOp59
 70
     1
102
RTVSPropertyOp60
 70
     1
102
RTVSPropertyOp61
 70
     1
102
RTVSPropertyOp62
 70
     1
  0
XRECORD
  5
F6D
102
{ACAD_REACTORS
330
F6C
102
}
330
F6C
100
AcDbXrecord
280
     1
102
RTVSPost2010Prop28
280
     0
102
RTVSPost2010PropOp28
 70
     1
102
RTVSPost2010Prop29
280
     1
102
RTVSPost2010PropOp29
 70
     1
102
RTVSPost2010Prop30
280
     1
102
RTVSPost2010PropOp30
 70
     1
102
RTVSPost2010Prop31
280
     0
102
RTVSPost2010PropOp31
 70
     1
102
RTVSPost2010Prop32
280
     0
102
RTVSPost2010PropOp32
 70
     1
102
RTVSPost2010Prop33
280
     0
102
RTVSPost2010PropOp33
 70
     1
102
RTVSPost2010Prop34
280
     0
102
RTVSPost2010PropOp34
 70
     1
102
RTVSPost2010Prop35
280
     0
102
RTVSPost2010PropOp35
 70
     1
102
RTVSPost2010Prop36
280
     0
102
RTVSPost2010PropOp36
 70
     1
102
RTVSPost2010Prop37
 90
       50
102
RTVSPost2010PropOp37
 70
     1
102
RTVSPost2010Prop38
140
0.0
102
RTVSPost2010PropOp38
 70
     1
102
RTVSPost2010Prop39
140
1.0
102
RTVSPost2010PropOp39
 70
     1
102
RTVSPost2010Prop40
 90
        0
102
RTVSPost2010PropOp40
 70
     1
102
RTVSPost2010Prop41ColorIndex
 90
       18
102
RTVSPost2010Prop41ColorRGB
 90
        0
102
RTVSPost2010PropOp41
 70
     1
102
RTVSPost2010Prop42
 90
       50
102
RTVSPost2010PropOp42
 70
     1
102
RTVSPost2010Prop43
 90
        3
102
RTVSPost2010PropOp43
 70
     1
102
RTVSPost2010Prop44ColorIndex
 90
        5
102
RTVSPost2010Prop44ColorRGB
 90
      255
102
RTVSPost2010PropOp44
 70
     1
102
RTVSPost2010Prop45
280
     0
102
RTVSPost2010PropOp45
 70
     1
102
RTVSPost2010Prop46
 90
       50
102
RTVSPost2010PropOp46
 70
     1
102
RTVSPost2010Prop47
 90
       50
102
RTVSPost2010PropOp47
 70
     1
102
RTVSPost2010Prop48
 90
       50
102
RTVSPost2010PropOp48
 70
     1
102
RTVSPost2010Prop49
280
     0
102
RTVSPost2010PropOp49
 70
     1
102
RTVSPost2010Prop50
 90
       50
102
RTVSPost2010PropOp50
 70
     1
102
RTVSPost2010Prop51ColorIndex
 90
      256
102
RTVSPost2010Prop51ColorRGB
 90
-16777216
102
RTVSPost2010PropOp51
 70
     0
102
RTVSPost2010Prop52
140
1.0
102
RTVSPost2010PropOp52
 70
     0
102
RTVSPost2010Prop53
 90
        2
102
RTVSPost2010PropOp53
 70
     1
102
RTVSPost2010Prop54
  1
strokes_ogs.tif
102
RTVSPost2010PropOp54
 70
     1
102
RTVSPost2010Prop55
280
     0
102
RTVSPost2010PropOp55
 70
     1
102
RTVSPost2010Prop56
140
1.0
102
RTVSPost2010PropOp56
 70
     1
102
RTVSPost2010Prop57
140
1.0
102
RTVSPost2010PropOp57
 70
     1
102
RTVSPropertyOp0
 70
     1
102
RTVSPropertyOp1
 70
     1
102
RTVSPropertyOp2
 70
     1
102
RTVSPropertyOp3
 70
     1
102
RTVSPropertyOp4
 70
     1
102
RTVSPropertyOp5
 70
     1
102
RTVSPropertyOp6
 70
     1
102
RTVSPropertyOp7
 70
     1
102
RTVSPropertyOp8
 70
     1
102
RTVSPropertyOp9
 70
     1
102
RTVSPropertyOp10
 70
     1
102
RTVSPropertyOp11
 70
     1
102
RTVSPropertyOp12
 70
     1
102
RTVSPropertyOp13
 70
     1
102
RTVSPropertyOp14
 70
     1
102
RTVSPropertyOp15
 70
     1
102
RTVSPropertyOp16
 70
     1
102
RTVSPropertyOp17
 70
     1
102
RTVSPropertyOp18
 70
     1
102
RTVSPropertyOp19
 70
     1
102
RTVSPropertyOp20
 70
     1
102
RTVSPropertyOp21
 70
     1
102
RTVSPropertyOp22
 70
     1
102
RTVSPropertyOp23
 70
     1
102
RTVSPropertyOp24
 70
     1
102
RTVSPropertyOp25
 70
     1
102
RTVSPropertyOp26
 70
     1
102
RTVSPropertyOp27
 70
     1
102
RTVSPropertyOp28
 70
     1
102
RTVSPropertyOp29
 70
     1
102
RTVSPropertyOp30
 70
     1
102
RTVSPropertyOp31
 70
     1
102
RTVSPropertyOp32
 70
     1
102
RTVSPropertyOp33
 70
     1
102
RTVSPropertyOp34
 70
     1
102
RTVSPropertyOp35
 70
     1
102
RTVSPropertyOp36
 70
     1
102
RTVSPropertyOp37
 70
     1
102
RTVSPropertyOp38
 70
     1
102
RTVSPropertyOp39
 70
     1
102
RTVSPropertyOp40
 70
     1
102
RTVSPropertyOp41
 70
     1
102
RTVSPropertyOp42
 70
     1
102
RTVSPropertyOp43
 70
     1
102
RTVSPropertyOp44
 70
     1
102
RTVSPropertyOp45
 70
     1
102
RTVSPropertyOp46
 70
     1
102
RTVSPropertyOp47
 70
     1
102
RTVSPropertyOp48
 70
     1
102
RTVSPropertyOp49
 70
     1
102
RTVSPropertyOp50
 70
     1
102
RTVSPropertyOp51
 70
     0
102
RTVSPropertyOp52
 70
     0
102
RTVSPropertyOp53
 70
     1
102
RTVSPropertyOp54
 70
     1
102
RTVSPropertyOp55
 70
     1
102
RTVSPropertyOp56
 70
     1
102
RTVSPropertyOp57
 70
     1
102
RTVSPropertyOp58
 70
     1
102
RTVSPropertyOp59
 70
     1
102
RTVSPropertyOp60
 70
     1
102
RTVSPropertyOp61
 70
     1
102
RTVSPropertyOp62
 70
     1
  0
XRECORD
  5
F75
102
{ACAD_REACTORS
330
F74
102
}
330
F74
100
AcDbXrecord
280
     1
102
RTVSPost2010Prop28
280
     0
102
RTVSPost2010PropOp28
 70
     1
102
RTVSPost2010Prop29
280
     1
102
RTVSPost2010PropOp29
 70
     1
102
RTVSPost2010Prop30
280
     1
102
RTVSPost2010PropOp30
 70
     1
102
RTVSPost2010Prop31
280
     0
102
RTVSPost2010PropOp31
 70
     1
102
RTVSPost2010Prop32
280
     0
102
RTVSPost2010PropOp32
 70
     1
102
RTVSPost2010Prop33
280
     0
102
RTVSPost2010PropOp33
 70
     1
102
RTVSPost2010Prop34
280
     0
102
RTVSPost2010PropOp34
 70
     1
102
RTVSPost2010Prop35
280
     0
102
RTVSPost2010PropOp35
 70
     1
102
RTVSPost2010Prop36
280
     0
102
RTVSPost2010PropOp36
 70
     1
102
RTVSPost2010Prop37
 90
       50
102
RTVSPost2010PropOp37
 70
     1
102
RTVSPost2010Prop38
140
0.0
102
RTVSPost2010PropOp38
 70
     1
102
RTVSPost2010Prop39
140
1.0
102
RTVSPost2010PropOp39
 70
     1
102
RTVSPost2010Prop40
 90
        0
102
RTVSPost2010PropOp40
 70
     1
102
RTVSPost2010Prop41ColorIndex
 90
       18
102
RTVSPost2010Prop41ColorRGB
 90
        0
102
RTVSPost2010PropOp41
 70
     1
102
RTVSPost2010Prop42
 90
       50
102
RTVSPost2010PropOp42
 70
     1
102
RTVSPost2010Prop43
 90
        3
102
RTVSPost2010PropOp43
 70
     1
102
RTVSPost2010Prop44ColorIndex
 90
        5
102
RTVSPost2010Prop44ColorRGB
 90
      255
102
RTVSPost2010PropOp44
 70
     1
102
RTVSPost2010Prop45
280
     0
102
RTVSPost2010PropOp45
 70
     1
102
RTVSPost2010Prop46
 90
       50
102
RTVSPost2010PropOp46
 70
     1
102
RTVSPost2010Prop47
 90
       50
102
RTVSPost2010PropOp47
 70
     1
102
RTVSPost2010Prop48
 90
       50
102
RTVSPost2010PropOp48
 70
     1
102
RTVSPost2010Prop49
280
     0
102
RTVSPost2010PropOp49
 70
     1
102
RTVSPost2010Prop50
 90
       50
102
RTVSPost2010PropOp50
 70
     1
102
RTVSPost2010Prop51ColorIndex
 90
      256
102
RTVSPost2010Prop51ColorRGB
 90
-16777216
102
RTVSPost2010PropOp51
 70
     0
102
RTVSPost2010Prop52
140
1.0
102
RTVSPost2010PropOp52
 70
     0
102
RTVSPost2010Prop53
 90
        2
102
RTVSPost2010PropOp53
 70
     1
102
RTVSPost2010Prop54
  1
strokes_ogs.tif
102
RTVSPost2010PropOp54
 70
     1
102
RTVSPost2010Prop55
280
     0
102
RTVSPost2010PropOp55
 70
     1
102
RTVSPost2010Prop56
140
1.0
102
RTVSPost2010PropOp56
 70
     1
102
RTVSPost2010Prop57
140
1.0
102
RTVSPost2010PropOp57
 70
     1
102
RTVSPropertyOp0
 70
     1
102
RTVSPropertyOp1
 70
     1
102
RTVSPropertyOp2
 70
     1
102
RTVSPropertyOp3
 70
     1
102
RTVSPropertyOp4
 70
     1
102
RTVSPropertyOp5
 70
     1
102
RTVSPropertyOp6
 70
     1
102
RTVSPropertyOp7
 70
     1
102
RTVSPropertyOp8
 70
     1
102
RTVSPropertyOp9
 70
     1
102
RTVSPropertyOp10
 70
     1
102
RTVSPropertyOp11
 70
     1
102
RTVSPropertyOp12
 70
     1
102
RTVSPropertyOp13
 70
     1
102
RTVSPropertyOp14
 70
     1
102
RTVSPropertyOp15
 70
     1
102
RTVSPropertyOp16
 70
     1
102
RTVSPropertyOp17
 70
     1
102
RTVSPropertyOp18
 70
     1
102
RTVSPropertyOp19
 70
     1
102
RTVSPropertyOp20
 70
     1
102
RTVSPropertyOp21
 70
     1
102
RTVSPropertyOp22
 70
     1
102
RTVSPropertyOp23
 70
     1
102
RTVSPropertyOp24
 70
     1
102
RTVSPropertyOp25
 70
     1
102
RTVSPropertyOp26
 70
     1
102
RTVSPropertyOp27
 70
     1
102
RTVSPropertyOp28
 70
     1
102
RTVSPropertyOp29
 70
     1
102
RTVSPropertyOp30
 70
     1
102
RTVSPropertyOp31
 70
     1
102
RTVSPropertyOp32
 70
     1
102
RTVSPropertyOp33
 70
     1
102
RTVSPropertyOp34
 70
     1
102
RTVSPropertyOp35
 70
     1
102
RTVSPropertyOp36
 70
     1
102
RTVSPropertyOp37
 70
     1
102
RTVSPropertyOp38
 70
     1
102
RTVSPropertyOp39
 70
     1
102
RTVSPropertyOp40
 70
     1
102
RTVSPropertyOp41
 70
     1
102
RTVSPropertyOp42
 70
     1
102
RTVSPropertyOp43
 70
     1
102
RTVSPropertyOp44
 70
     1
102
RTVSPropertyOp45
 70
     1
102
RTVSPropertyOp46
 70
     1
102
RTVSPropertyOp47
 70
     1
102
RTVSPropertyOp48
 70
     1
102
RTVSPropertyOp49
 70
     1
102
RTVSPropertyOp50
 70
     1
102
RTVSPropertyOp51
 70
     0
102
RTVSPropertyOp52
 70
     0
102
RTVSPropertyOp53
 70
     1
102
RTVSPropertyOp54
 70
     1
102
RTVSPropertyOp55
 70
     1
102
RTVSPropertyOp56
 70
     1
102
RTVSPropertyOp57
 70
     1
102
RTVSPropertyOp58
 70
     1
102
RTVSPropertyOp59
 70
     1
102
RTVSPropertyOp60
 70
     1
102
RTVSPropertyOp61
 70
     1
102
RTVSPropertyOp62
 70
     1
  0
XRECORD
  5
F67
102
{ACAD_REACTORS
330
F66
102
}
330
F66
100
AcDbXrecord
280
     1
102
RTVSPost2010Prop28
280
     0
102
RTVSPost2010PropOp28
 70
     1
102
RTVSPost2010Prop29
280
     1
102
RTVSPost2010PropOp29
 70
     1
102
RTVSPost2010Prop30
280
     1
102
RTVSPost2010PropOp30
 70
     1
102
RTVSPost2010Prop31
280
     0
102
RTVSPost2010PropOp31
 70
     1
102
RTVSPost2010Prop32
280
     0
102
RTVSPost2010PropOp32
 70
     1
102
RTVSPost2010Prop33
280
     0
102
RTVSPost2010PropOp33
 70
     1
102
RTVSPost2010Prop34
280
     0
102
RTVSPost2010PropOp34
 70
     1
102
RTVSPost2010Prop35
280
     0
102
RTVSPost2010PropOp35
 70
     1
102
RTVSPost2010Prop36
280
     0
102
RTVSPost2010PropOp36
 70
     1
102
RTVSPost2010Prop37
 90
       50
102
RTVSPost2010PropOp37
 70
     1
102
RTVSPost2010Prop38
140
0.0
102
RTVSPost2010PropOp38
 70
     1
102
RTVSPost2010Prop39
140
1.0
102
RTVSPost2010PropOp39
 70
     1
102
RTVSPost2010Prop40
 90
        0
102
RTVSPost2010PropOp40
 70
     1
102
RTVSPost2010Prop41ColorIndex
 90
       18
102
RTVSPost2010Prop41ColorRGB
 90
        0
102
RTVSPost2010PropOp41
 70
     1
102
RTVSPost2010Prop42
 90
       50
102
RTVSPost2010PropOp42
 70
     1
102
RTVSPost2010Prop43
 90
        3
102
RTVSPost2010PropOp43
 70
     1
102
RTVSPost2010Prop44ColorIndex
 90
        5
102
RTVSPost2010Prop44ColorRGB
 90
      255
102
RTVSPost2010PropOp44
 70
     1
102
RTVSPost2010Prop45
280
     0
102
RTVSPost2010PropOp45
 70
     1
102
RTVSPost2010Prop46
 90
       50
102
RTVSPost2010PropOp46
 70
     1
102
RTVSPost2010Prop47
 90
       50
102
RTVSPost2010PropOp47
 70
     1
102
RTVSPost2010Prop48
 90
       50
102
RTVSPost2010PropOp48
 70
     1
102
RTVSPost2010Prop49
280
     0
102
RTVSPost2010PropOp49
 70
     1
102
RTVSPost2010Prop50
 90
       50
102
RTVSPost2010PropOp50
 70
     1
102
RTVSPost2010Prop51ColorIndex
 90
      256
102
RTVSPost2010Prop51ColorRGB
 90
-16777216
102
RTVSPost2010PropOp51
 70
     0
102
RTVSPost2010Prop52
140
1.0
102
RTVSPost2010PropOp52
 70
     0
102
RTVSPost2010Prop53
 90
        2
102
RTVSPost2010PropOp53
 70
     1
102
RTVSPost2010Prop54
  1
strokes_ogs.tif
102
RTVSPost2010PropOp54
 70
     1
102
RTVSPost2010Prop55
280
     0
102
RTVSPost2010PropOp55
 70
     1
102
RTVSPost2010Prop56
140
1.0
102
RTVSPost2010PropOp56
 70
     1
102
RTVSPost2010Prop57
140
1.0
102
RTVSPost2010PropOp57
 70
     1
102
RTVSPropertyOp0
 70
     1
102
RTVSPropertyOp1
 70
     1
102
RTVSPropertyOp2
 70
     1
102
RTVSPropertyOp3
 70
     1
102
RTVSPropertyOp4
 70
     1
102
RTVSPropertyOp5
 70
     1
102
RTVSPropertyOp6
 70
     1
102
RTVSPropertyOp7
 70
     1
102
RTVSPropertyOp8
 70
     1
102
RTVSPropertyOp9
 70
     1
102
RTVSPropertyOp10
 70
     1
102
RTVSPropertyOp11
 70
     1
102
RTVSPropertyOp12
 70
     1
102
RTVSPropertyOp13
 70
     1
102
RTVSPropertyOp14
 70
     1
102
RTVSPropertyOp15
 70
     1
102
RTVSPropertyOp16
 70
     1
102
RTVSPropertyOp17
 70
     1
102
RTVSPropertyOp18
 70
     1
102
RTVSPropertyOp19
 70
     1
102
RTVSPropertyOp20
 70
     1
102
RTVSPropertyOp21
 70
     1
102
RTVSPropertyOp22
 70
     1
102
RTVSPropertyOp23
 70
     1
102
RTVSPropertyOp24
 70
     1
102
RTVSPropertyOp25
 70
     1
102
RTVSPropertyOp26
 70
     1
102
RTVSPropertyOp27
 70
     1
102
RTVSPropertyOp28
 70
     1
102
RTVSPropertyOp29
 70
     1
102
RTVSPropertyOp30
 70
     1
102
RTVSPropertyOp31
 70
     1
102
RTVSPropertyOp32
 70
     1
102
RTVSPropertyOp33
 70
     1
102
RTVSPropertyOp34
 70
     1
102
RTVSPropertyOp35
 70
     1
102
RTVSPropertyOp36
 70
     1
102
RTVSPropertyOp37
 70
     1
102
RTVSPropertyOp38
 70
     1
102
RTVSPropertyOp39
 70
     1
102
RTVSPropertyOp40
 70
     1
102
RTVSPropertyOp41
 70
     1
102
RTVSPropertyOp42
 70
     1
102
RTVSPropertyOp43
 70
     1
102
RTVSPropertyOp44
 70
     1
102
RTVSPropertyOp45
 70
     1
102
RTVSPropertyOp46
 70
     1
102
RTVSPropertyOp47
 70
     1
102
RTVSPropertyOp48
 70
     1
102
RTVSPropertyOp49
 70
     1
102
RTVSPropertyOp50
 70
     1
102
RTVSPropertyOp51
 70
     0
102
RTVSPropertyOp52
 70
     0
102
RTVSPropertyOp53
 70
     1
102
RTVSPropertyOp54
 70
     1
102
RTVSPropertyOp55
 70
     1
102
RTVSPropertyOp56
 70
     1
102
RTVSPropertyOp57
 70
     1
102
RTVSPropertyOp58
 70
     1
102
RTVSPropertyOp59
 70
     1
102
RTVSPropertyOp60
 70
     1
102
RTVSPropertyOp61
 70
     1
102
RTVSPropertyOp62
 70
     1
  0
XRECORD
  5
F6B
102
{ACAD_REACTORS
330
F6A
102
}
330
F6A
100
AcDbXrecord
280
     1
102
RTVSPost2010Prop28
280
     0
102
RTVSPost2010PropOp28
 70
     1
102
RTVSPost2010Prop29
280
     1
102
RTVSPost2010PropOp29
 70
     1
102
RTVSPost2010Prop30
280
     1
102
RTVSPost2010PropOp30
 70
     1
102
RTVSPost2010Prop31
280
     0
102
RTVSPost2010PropOp31
 70
     1
102
RTVSPost2010Prop32
280
     0
102
RTVSPost2010PropOp32
 70
     1
102
RTVSPost2010Prop33
280
     0
102
RTVSPost2010PropOp33
 70
     1
102
RTVSPost2010Prop34
280
     0
102
RTVSPost2010PropOp34
 70
     1
102
RTVSPost2010Prop35
280
     0
102
RTVSPost2010PropOp35
 70
     1
102
RTVSPost2010Prop36
280
     0
102
RTVSPost2010PropOp36
 70
     1
102
RTVSPost2010Prop37
 90
       50
102
RTVSPost2010PropOp37
 70
     1
102
RTVSPost2010Prop38
140
0.0
102
RTVSPost2010PropOp38
 70
     1
102
RTVSPost2010Prop39
140
1.0
102
RTVSPost2010PropOp39
 70
     1
102
RTVSPost2010Prop40
 90
        0
102
RTVSPost2010PropOp40
 70
     1
102
RTVSPost2010Prop41ColorIndex
 90
       18
102
RTVSPost2010Prop41ColorRGB
 90
        0
102
RTVSPost2010PropOp41
 70
     1
102
RTVSPost2010Prop42
 90
       50
102
RTVSPost2010PropOp42
 70
     1
102
RTVSPost2010Prop43
 90
        3
102
RTVSPost2010PropOp43
 70
     1
102
RTVSPost2010Prop44ColorIndex
 90
        5
102
RTVSPost2010Prop44ColorRGB
 90
      255
102
RTVSPost2010PropOp44
 70
     1
102
RTVSPost2010Prop45
280
     0
102
RTVSPost2010PropOp45
 70
     1
102
RTVSPost2010Prop46
 90
       50
102
RTVSPost2010PropOp46
 70
     1
102
RTVSPost2010Prop47
 90
       50
102
RTVSPost2010PropOp47
 70
     1
102
RTVSPost2010Prop48
 90
       50
102
RTVSPost2010PropOp48
 70
     1
102
RTVSPost2010Prop49
280
     0
102
RTVSPost2010PropOp49
 70
     1
102
RTVSPost2010Prop50
 90
       50
102
RTVSPost2010PropOp50
 70
     1
102
RTVSPost2010Prop51ColorIndex
 90
      256
102
RTVSPost2010Prop51ColorRGB
 90
-16777216
102
RTVSPost2010PropOp51
 70
     0
102
RTVSPost2010Prop52
140
1.0
102
RTVSPost2010PropOp52
 70
     0
102
RTVSPost2010Prop53
 90
        2
102
RTVSPost2010PropOp53
 70
     1
102
RTVSPost2010Prop54
  1
strokes_ogs.tif
102
RTVSPost2010PropOp54
 70
     1
102
RTVSPost2010Prop55
280
     0
102
RTVSPost2010PropOp55
 70
     1
102
RTVSPost2010Prop56
140
1.0
102
RTVSPost2010PropOp56
 70
     1
102
RTVSPost2010Prop57
140
1.0
102
RTVSPost2010PropOp57
 70
     1
102
RTVSPropertyOp0
 70
     1
102
RTVSPropertyOp1
 70
     1
102
RTVSPropertyOp2
 70
     1
102
RTVSPropertyOp3
 70
     1
102
RTVSPropertyOp4
 70
     1
102
RTVSPropertyOp5
 70
     1
102
RTVSPropertyOp6
 70
     1
102
RTVSPropertyOp7
 70
     1
102
RTVSPropertyOp8
 70
     1
102
RTVSPropertyOp9
 70
     1
102
RTVSPropertyOp10
 70
     1
102
RTVSPropertyOp11
 70
     1
102
RTVSPropertyOp12
 70
     1
102
RTVSPropertyOp13
 70
     1
102
RTVSPropertyOp14
 70
     1
102
RTVSPropertyOp15
 70
     1
102
RTVSPropertyOp16
 70
     1
102
RTVSPropertyOp17
 70
     1
102
RTVSPropertyOp18
 70
     1
102
RTVSPropertyOp19
 70
     1
102
RTVSPropertyOp20
 70
     1
102
RTVSPropertyOp21
 70
     1
102
RTVSPropertyOp22
 70
     1
102
RTVSPropertyOp23
 70
     1
102
RTVSPropertyOp24
 70
     1
102
RTVSPropertyOp25
 70
     1
102
RTVSPropertyOp26
 70
     1
102
RTVSPropertyOp27
 70
     1
102
RTVSPropertyOp28
 70
     1
102
RTVSPropertyOp29
 70
     1
102
RTVSPropertyOp30
 70
     1
102
RTVSPropertyOp31
 70
     1
102
RTVSPropertyOp32
 70
     1
102
RTVSPropertyOp33
 70
     1
102
RTVSPropertyOp34
 70
     1
102
RTVSPropertyOp35
 70
     1
102
RTVSPropertyOp36
 70
     1
102
RTVSPropertyOp37
 70
     1
102
RTVSPropertyOp38
 70
     1
102
RTVSPropertyOp39
 70
     1
102
RTVSPropertyOp40
 70
     1
102
RTVSPropertyOp41
 70
     1
102
RTVSPropertyOp42
 70
     1
102
RTVSPropertyOp43
 70
     1
102
RTVSPropertyOp44
 70
     1
102
RTVSPropertyOp45
 70
     1
102
RTVSPropertyOp46
 70
     1
102
RTVSPropertyOp47
 70
     1
102
RTVSPropertyOp48
 70
     1
102
RTVSPropertyOp49
 70
     1
102
RTVSPropertyOp50
 70
     1
102
RTVSPropertyOp51
 70
     0
102
RTVSPropertyOp52
 70
     0
102
RTVSPropertyOp53
 70
     1
102
RTVSPropertyOp54
 70
     1
102
RTVSPropertyOp55
 70
     1
102
RTVSPropertyOp56
 70
     1
102
RTVSPropertyOp57
 70
     1
102
RTVSPropertyOp58
 70
     1
102
RTVSPropertyOp59
 70
     1
102
RTVSPropertyOp60
 70
     1
102
RTVSPropertyOp61
 70
     1
102
RTVSPropertyOp62
 70
     1
  0
XRECORD
  5
F89
102
{ACAD_REACTORS
330
F88
102
}
330
F88
100
AcDbXrecord
280
     1
102
RTVSPost2010Prop28
280
     0
102
RTVSPost2010PropOp28
 70
     0
102
RTVSPost2010Prop29
280
     1
102
RTVSPost2010PropOp29
 70
     0
102
RTVSPost2010Prop30
280
     1
102
RTVSPost2010PropOp30
 70
     0
102
RTVSPost2010Prop31
280
     0
102
RTVSPost2010PropOp31
 70
     0
102
RTVSPost2010Prop32
280
     0
102
RTVSPost2010PropOp32
 70
     0
102
RTVSPost2010Prop33
280
     0
102
RTVSPost2010PropOp33
 70
     1
102
RTVSPost2010Prop34
280
     0
102
RTVSPost2010PropOp34
 70
     1
102
RTVSPost2010Prop35
280
     0
102
RTVSPost2010PropOp35
 70
     1
102
RTVSPost2010Prop36
280
     0
102
RTVSPost2010PropOp36
 70
     1
102
RTVSPost2010Prop37
 90
       50
102
RTVSPost2010PropOp37
 70
     1
102
RTVSPost2010Prop38
140
0.0
102
RTVSPost2010PropOp38
 70
     1
102
RTVSPost2010Prop39
140
1.0
102
RTVSPost2010PropOp39
 70
     1
102
RTVSPost2010Prop40
 90
        0
102
RTVSPost2010PropOp40
 70
     1
102
RTVSPost2010Prop41ColorIndex
 90
       18
102
RTVSPost2010Prop41ColorRGB
 90
        0
102
RTVSPost2010PropOp41
 70
     1
102
RTVSPost2010Prop42
 90
       50
102
RTVSPost2010PropOp42
 70
     1
102
RTVSPost2010Prop43
 90
        3
102
RTVSPost2010PropOp43
 70
     1
102
RTVSPost2010Prop44ColorIndex
 90
        5
102
RTVSPost2010Prop44ColorRGB
 90
      255
102
RTVSPost2010PropOp44
 70
     1
102
RTVSPost2010Prop45
280
     0
102
RTVSPost2010PropOp45
 70
     1
102
RTVSPost2010Prop46
 90
       50
102
RTVSPost2010PropOp46
 70
     1
102
RTVSPost2010Prop47
 90
       50
102
RTVSPost2010PropOp47
 70
     1
102
RTVSPost2010Prop48
 90
       50
102
RTVSPost2010PropOp48
 70
     1
102
RTVSPost2010Prop49
280
     0
102
RTVSPost2010PropOp49
 70
     1
102
RTVSPost2010Prop50
 90
       50
102
RTVSPost2010PropOp50
 70
     1
102
RTVSPost2010Prop51ColorIndex
 90
      256
102
RTVSPost2010Prop51ColorRGB
 90
-16777216
102
RTVSPost2010PropOp51
 70
     0
102
RTVSPost2010Prop52
140
1.0
102
RTVSPost2010PropOp52
 70
     0
102
RTVSPost2010Prop53
 90
        2
102
RTVSPost2010PropOp53
 70
     1
102
RTVSPost2010Prop54
  1
strokes_ogs.tif
102
RTVSPost2010PropOp54
 70
     1
102
RTVSPost2010Prop55
280
     0
102
RTVSPost2010PropOp55
 70
     1
102
RTVSPost2010Prop56
140
1.0
102
RTVSPost2010PropOp56
 70
     1
102
RTVSPost2010Prop57
140
1.0
102
RTVSPost2010PropOp57
 70
     1
102
RTVSPropertyOp0
 70
     0
102
RTVSPropertyOp1
 70
     0
102
RTVSPropertyOp2
 70
     0
102
RTVSPropertyOp3
 70
     0
102
RTVSPropertyOp4
 70
     0
102
RTVSPropertyOp5
 70
     0
102
RTVSPropertyOp6
 70
     0
102
RTVSPropertyOp7
 70
     0
102
RTVSPropertyOp8
 70
     0
102
RTVSPropertyOp9
 70
     0
102
RTVSPropertyOp10
 70
     0
102
RTVSPropertyOp11
 70
     0
102
RTVSPropertyOp12
 70
     0
102
RTVSPropertyOp13
 70
     0
102
RTVSPropertyOp14
 70
     2
102
RTVSPropertyOp15
 70
     0
102
RTVSPropertyOp16
 70
     0
102
RTVSPropertyOp17
 70
     0
102
RTVSPropertyOp18
 70
     0
102
RTVSPropertyOp19
 70
     0
102
RTVSPropertyOp20
 70
     0
102
RTVSPropertyOp21
 70
     0
102
RTVSPropertyOp22
 70
     0
102
RTVSPropertyOp23
 70
     0
102
RTVSPropertyOp24
 70
     0
102
RTVSPropertyOp25
 70
     0
102
RTVSPropertyOp26
 70
     0
102
RTVSPropertyOp27
 70
     0
102
RTVSPropertyOp28
 70
     0
102
RTVSPropertyOp29
 70
     0
102
RTVSPropertyOp30
 70
     0
102
RTVSPropertyOp31
 70
     0
102
RTVSPropertyOp32
 70
     0
102
RTVSPropertyOp33
 70
     1
102
RTVSPropertyOp34
 70
     1
102
RTVSPropertyOp35
 70
     1
102
RTVSPropertyOp36
 70
     1
102
RTVSPropertyOp37
 70
     1
102
RTVSPropertyOp38
 70
     1
102
RTVSPropertyOp39
 70
     1
102
RTVSPropertyOp40
 70
     1
102
RTVSPropertyOp41
 70
     1
102
RTVSPropertyOp42
 70
     1
102
RTVSPropertyOp43
 70
     1
102
RTVSPropertyOp44
 70
     1
102
RTVSPropertyOp45
 70
     1
102
RTVSPropertyOp46
 70
     1
102
RTVSPropertyOp47
 70
     1
102
RTVSPropertyOp48
 70
     1
102
RTVSPropertyOp49
 70
     1
102
RTVSPropertyOp50
 70
     1
102
RTVSPropertyOp51
 70
     0
102
RTVSPropertyOp52
 70
     0
102
RTVSPropertyOp53
 70
     1
102
RTVSPropertyOp54
 70
     1
102
RTVSPropertyOp55
 70
     1
102
RTVSPropertyOp56
 70
     1
102
RTVSPropertyOp57
 70
     1
102
RTVSPropertyOp58
 70
     1
102
RTVSPropertyOp59
 70
     1
102
RTVSPropertyOp60
 70
     1
102
RTVSPropertyOp61
 70
     1
102
RTVSPropertyOp62
 70
     1
  0
XRECORD
  5
F73
102
{ACAD_REACTORS
330
F72
102
}
330
F72
100
AcDbXrecord
280
     1
102
RTVSPost2010Prop28
280
     0
102
RTVSPost2010PropOp28
 70
     1
102
RTVSPost2010Prop29
280
     1
102
RTVSPost2010PropOp29
 70
     1
102
RTVSPost2010Prop30
280
     1
102
RTVSPost2010PropOp30
 70
     1
102
RTVSPost2010Prop31
280
     0
102
RTVSPost2010PropOp31
 70
     1
102
RTVSPost2010Prop32
280
     0
102
RTVSPost2010PropOp32
 70
     1
102
RTVSPost2010Prop33
280
     0
102
RTVSPost2010PropOp33
 70
     1
102
RTVSPost2010Prop34
280
     0
102
RTVSPost2010PropOp34
 70
     1
102
RTVSPost2010Prop35
280
     0
102
RTVSPost2010PropOp35
 70
     1
102
RTVSPost2010Prop36
280
     0
102
RTVSPost2010PropOp36
 70
     1
102
RTVSPost2010Prop37
 90
       50
102
RTVSPost2010PropOp37
 70
     1
102
RTVSPost2010Prop38
140
0.0
102
RTVSPost2010PropOp38
 70
     1
102
RTVSPost2010Prop39
140
1.0
102
RTVSPost2010PropOp39
 70
     1
102
RTVSPost2010Prop40
 90
        0
102
RTVSPost2010PropOp40
 70
     1
102
RTVSPost2010Prop41ColorIndex
 90
       18
102
RTVSPost2010Prop41ColorRGB
 90
        0
102
RTVSPost2010PropOp41
 70
     1
102
RTVSPost2010Prop42
 90
       50
102
RTVSPost2010PropOp42
 70
     1
102
RTVSPost2010Prop43
 90
        3
102
RTVSPost2010PropOp43
 70
     1
102
RTVSPost2010Prop44ColorIndex
 90
        5
102
RTVSPost2010Prop44ColorRGB
 90
      255
102
RTVSPost2010PropOp44
 70
     1
102
RTVSPost2010Prop45
280
     0
102
RTVSPost2010PropOp45
 70
     1
102
RTVSPost2010Prop46
 90
       50
102
RTVSPost2010PropOp46
 70
     1
102
RTVSPost2010Prop47
 90
       50
102
RTVSPost2010PropOp47
 70
     1
102
RTVSPost2010Prop48
 90
       50
102
RTVSPost2010PropOp48
 70
     1
102
RTVSPost2010Prop49
280
     0
102
RTVSPost2010PropOp49
 70
     1
102
RTVSPost2010Prop50
 90
       50
102
RTVSPost2010PropOp50
 70
     1
102
RTVSPost2010Prop51ColorIndex
 90
      256
102
RTVSPost2010Prop51ColorRGB
 90
-16777216
102
RTVSPost2010PropOp51
 70
     0
102
RTVSPost2010Prop52
140
1.0
102
RTVSPost2010PropOp52
 70
     0
102
RTVSPost2010Prop53
 90
        2
102
RTVSPost2010PropOp53
 70
     1
102
RTVSPost2010Prop54
  1
strokes_ogs.tif
102
RTVSPost2010PropOp54
 70
     1
102
RTVSPost2010Prop55
280
     0
102
RTVSPost2010PropOp55
 70
     1
102
RTVSPost2010Prop56
140
1.0
102
RTVSPost2010PropOp56
 70
     1
102
RTVSPost2010Prop57
140
1.0
102
RTVSPost2010PropOp57
 70
     1
102
RTVSPropertyOp0
 70
     1
102
RTVSPropertyOp1
 70
     1
102
RTVSPropertyOp2
 70
     1
102
RTVSPropertyOp3
 70
     1
102
RTVSPropertyOp4
 70
     1
102
RTVSPropertyOp5
 70
     1
102
RTVSPropertyOp6
 70
     1
102
RTVSPropertyOp7
 70
     1
102
RTVSPropertyOp8
 70
     1
102
RTVSPropertyOp9
 70
     1
102
RTVSPropertyOp10
 70
     1
102
RTVSPropertyOp11
 70
     1
102
RTVSPropertyOp12
 70
     1
102
RTVSPropertyOp13
 70
     1
102
RTVSPropertyOp14
 70
     1
102
RTVSPropertyOp15
 70
     1
102
RTVSPropertyOp16
 70
     1
102
RTVSPropertyOp17
 70
     1
102
RTVSPropertyOp18
 70
     1
102
RTVSPropertyOp19
 70
     1
102
RTVSPropertyOp20
 70
     1
102
RTVSPropertyOp21
 70
     1
102
RTVSPropertyOp22
 70
     1
102
RTVSPropertyOp23
 70
     1
102
RTVSPropertyOp24
 70
     1
102
RTVSPropertyOp25
 70
     1
102
RTVSPropertyOp26
 70
     1
102
RTVSPropertyOp27
 70
     1
102
RTVSPropertyOp28
 70
     1
102
RTVSPropertyOp29
 70
     1
102
RTVSPropertyOp30
 70
     1
102
RTVSPropertyOp31
 70
     1
102
RTVSPropertyOp32
 70
     1
102
RTVSPropertyOp33
 70
     1
102
RTVSPropertyOp34
 70
     1
102
RTVSPropertyOp35
 70
     1
102
RTVSPropertyOp36
 70
     1
102
RTVSPropertyOp37
 70
     1
102
RTVSPropertyOp38
 70
     1
102
RTVSPropertyOp39
 70
     1
102
RTVSPropertyOp40
 70
     1
102
RTVSPropertyOp41
 70
     1
102
RTVSPropertyOp42
 70
     1
102
RTVSPropertyOp43
 70
     1
102
RTVSPropertyOp44
 70
     1
102
RTVSPropertyOp45
 70
     1
102
RTVSPropertyOp46
 70
     1
102
RTVSPropertyOp47
 70
     1
102
RTVSPropertyOp48
 70
     1
102
RTVSPropertyOp49
 70
     1
102
RTVSPropertyOp50
 70
     1
102
RTVSPropertyOp51
 70
     0
102
RTVSPropertyOp52
 70
     0
102
RTVSPropertyOp53
 70
     1
102
RTVSPropertyOp54
 70
     1
102
RTVSPropertyOp55
 70
     1
102
RTVSPropertyOp56
 70
     1
102
RTVSPropertyOp57
 70
     1
102
RTVSPropertyOp58
 70
     1
102
RTVSPropertyOp59
 70
     1
102
RTVSPropertyOp60
 70
     1
102
RTVSPropertyOp61
 70
     1
102
RTVSPropertyOp62
 70
     1
  0
XRECORD
  5
F57
102
{ACAD_REACTORS
330
F56
102
}
330
F56
100
AcDbXrecord
280
     1
102
RTVSPost2010Prop28
280
     0
102
RTVSPost2010PropOp28
 70
     1
102
RTVSPost2010Prop29
280
     1
102
RTVSPost2010PropOp29
 70
     1
102
RTVSPost2010Prop30
280
     1
102
RTVSPost2010PropOp30
 70
     1
102
RTVSPost2010Prop31
280
     0
102
RTVSPost2010PropOp31
 70
     1
102
RTVSPost2010Prop32
280
     0
102
RTVSPost2010PropOp32
 70
     1
102
RTVSPost2010Prop33
280
     0
102
RTVSPost2010PropOp33
 70
     1
102
RTVSPost2010Prop34
280
     0
102
RTVSPost2010PropOp34
 70
     1
102
RTVSPost2010Prop35
280
     0
102
RTVSPost2010PropOp35
 70
     1
102
RTVSPost2010Prop36
280
     0
102
RTVSPost2010PropOp36
 70
     1
102
RTVSPost2010Prop37
 90
       50
102
RTVSPost2010PropOp37
 70
     1
102
RTVSPost2010Prop38
140
0.0
102
RTVSPost2010PropOp38
 70
     1
102
RTVSPost2010Prop39
140
1.0
102
RTVSPost2010PropOp39
 70
     1
102
RTVSPost2010Prop40
 90
        0
102
RTVSPost2010PropOp40
 70
     1
102
RTVSPost2010Prop41ColorIndex
 90
       18
102
RTVSPost2010Prop41ColorRGB
 90
        0
102
RTVSPost2010PropOp41
 70
     1
102
RTVSPost2010Prop42
 90
       50
102
RTVSPost2010PropOp42
 70
     1
102
RTVSPost2010Prop43
 90
        3
102
RTVSPost2010PropOp43
 70
     1
102
RTVSPost2010Prop44ColorIndex
 90
        5
102
RTVSPost2010Prop44ColorRGB
 90
      255
102
RTVSPost2010PropOp44
 70
     1
102
RTVSPost2010Prop45
280
     0
102
RTVSPost2010PropOp45
 70
     1
102
RTVSPost2010Prop46
 90
       50
102
RTVSPost2010PropOp46
 70
     1
102
RTVSPost2010Prop47
 90
       50
102
RTVSPost2010PropOp47
 70
     1
102
RTVSPost2010Prop48
 90
       50
102
RTVSPost2010PropOp48
 70
     1
102
RTVSPost2010Prop49
280
     0
102
RTVSPost2010PropOp49
 70
     1
102
RTVSPost2010Prop50
 90
       50
102
RTVSPost2010PropOp50
 70
     1
102
RTVSPost2010Prop51ColorIndex
 90
      256
102
RTVSPost2010Prop51ColorRGB
 90
-16777216
102
RTVSPost2010PropOp51
 70
     0
102
RTVSPost2010Prop52
140
1.0
102
RTVSPost2010PropOp52
 70
     0
102
RTVSPost2010Prop53
 90
        2
102
RTVSPost2010PropOp53
 70
     1
102
RTVSPost2010Prop54
  1
strokes_ogs.tif
102
RTVSPost2010PropOp54
 70
     1
102
RTVSPost2010Prop55
280
     0
102
RTVSPost2010PropOp55
 70
     1
102
RTVSPost2010Prop56
140
1.0
102
RTVSPost2010PropOp56
 70
     1
102
RTVSPost2010Prop57
140
1.0
102
RTVSPost2010PropOp57
 70
     1
102
RTVSPropertyOp0
 70
     1
102
RTVSPropertyOp1
 70
     1
102
RTVSPropertyOp2
 70
     1
102
RTVSPropertyOp3
 70
     1
102
RTVSPropertyOp4
 70
     1
102
RTVSPropertyOp5
 70
     1
102
RTVSPropertyOp6
 70
     1
102
RTVSPropertyOp7
 70
     1
102
RTVSPropertyOp8
 70
     1
102
RTVSPropertyOp9
 70
     1
102
RTVSPropertyOp10
 70
     1
102
RTVSPropertyOp11
 70
     1
102
RTVSPropertyOp12
 70
     1
102
RTVSPropertyOp13
 70
     1
102
RTVSPropertyOp14
 70
     1
102
RTVSPropertyOp15
 70
     1
102
RTVSPropertyOp16
 70
     1
102
RTVSPropertyOp17
 70
     1
102
RTVSPropertyOp18
 70
     1
102
RTVSPropertyOp19
 70
     1
102
RTVSPropertyOp20
 70
     1
102
RTVSPropertyOp21
 70
     1
102
RTVSPropertyOp22
 70
     1
102
RTVSPropertyOp23
 70
     1
102
RTVSPropertyOp24
 70
     1
102
RTVSPropertyOp25
 70
     1
102
RTVSPropertyOp26
 70
     1
102
RTVSPropertyOp27
 70
     1
102
RTVSPropertyOp28
 70
     1
102
RTVSPropertyOp29
 70
     1
102
RTVSPropertyOp30
 70
     1
102
RTVSPropertyOp31
 70
     1
102
RTVSPropertyOp32
 70
     1
102
RTVSPropertyOp33
 70
     1
102
RTVSPropertyOp34
 70
     1
102
RTVSPropertyOp35
 70
     1
102
RTVSPropertyOp36
 70
     1
102
RTVSPropertyOp37
 70
     1
102
RTVSPropertyOp38
 70
     1
102
RTVSPropertyOp39
 70
     1
102
RTVSPropertyOp40
 70
     1
102
RTVSPropertyOp41
 70
     1
102
RTVSPropertyOp42
 70
     1
102
RTVSPropertyOp43
 70
     1
102
RTVSPropertyOp44
 70
     1
102
RTVSPropertyOp45
 70
     1
102
RTVSPropertyOp46
 70
     1
102
RTVSPropertyOp47
 70
     1
102
RTVSPropertyOp48
 70
     1
102
RTVSPropertyOp49
 70
     1
102
RTVSPropertyOp50
 70
     1
102
RTVSPropertyOp51
 70
     0
102
RTVSPropertyOp52
 70
     0
102
RTVSPropertyOp53
 70
     1
102
RTVSPropertyOp54
 70
     1
102
RTVSPropertyOp55
 70
     1
102
RTVSPropertyOp56
 70
     1
102
RTVSPropertyOp57
 70
     1
102
RTVSPropertyOp58
 70
     1
102
RTVSPropertyOp59
 70
     1
102
RTVSPropertyOp60
 70
     1
102
RTVSPropertyOp61
 70
     1
102
RTVSPropertyOp62
 70
     1
  0
XRECORD
  5
F59
102
{ACAD_REACTORS
330
F58
102
}
330
F58
100
AcDbXrecord
280
     1
102
RTVSPost2010Prop28
280
     0
102
RTVSPost2010PropOp28
 70
     1
102
RTVSPost2010Prop29
280
     1
102
RTVSPost2010PropOp29
 70
     1
102
RTVSPost2010Prop30
280
     1
102
RTVSPost2010PropOp30
 70
     1
102
RTVSPost2010Prop31
280
     0
102
RTVSPost2010PropOp31
 70
     1
102
RTVSPost2010Prop32
280
     0
102
RTVSPost2010PropOp32
 70
     1
102
RTVSPost2010Prop33
280
     0
102
RTVSPost2010PropOp33
 70
     1
102
RTVSPost2010Prop34
280
     0
102
RTVSPost2010PropOp34
 70
     1
102
RTVSPost2010Prop35
280
     0
102
RTVSPost2010PropOp35
 70
     1
102
RTVSPost2010Prop36
280
     0
102
RTVSPost2010PropOp36
 70
     1
102
RTVSPost2010Prop37
 90
       50
102
RTVSPost2010PropOp37
 70
     1
102
RTVSPost2010Prop38
140
0.0
102
RTVSPost2010PropOp38
 70
     1
102
RTVSPost2010Prop39
140
1.0
102
RTVSPost2010PropOp39
 70
     1
102
RTVSPost2010Prop40
 90
        0
102
RTVSPost2010PropOp40
 70
     1
102
RTVSPost2010Prop41ColorIndex
 90
       18
102
RTVSPost2010Prop41ColorRGB
 90
        0
102
RTVSPost2010PropOp41
 70
     1
102
RTVSPost2010Prop42
 90
       50
102
RTVSPost2010PropOp42
 70
     1
102
RTVSPost2010Prop43
 90
        3
102
RTVSPost2010PropOp43
 70
     1
102
RTVSPost2010Prop44ColorIndex
 90
        5
102
RTVSPost2010Prop44ColorRGB
 90
      255
102
RTVSPost2010PropOp44
 70
     1
102
RTVSPost2010Prop45
280
     0
102
RTVSPost2010PropOp45
 70
     1
102
RTVSPost2010Prop46
 90
       50
102
RTVSPost2010PropOp46
 70
     1
102
RTVSPost2010Prop47
 90
       50
102
RTVSPost2010PropOp47
 70
     1
102
RTVSPost2010Prop48
 90
       50
102
RTVSPost2010PropOp48
 70
     1
102
RTVSPost2010Prop49
280
     0
102
RTVSPost2010PropOp49
 70
     1
102
RTVSPost2010Prop50
 90
       50
102
RTVSPost2010PropOp50
 70
     1
102
RTVSPost2010Prop51ColorIndex
 90
      256
102
RTVSPost2010Prop51ColorRGB
 90
-16777216
102
RTVSPost2010PropOp51
 70
     0
102
RTVSPost2010Prop52
140
1.0
102
RTVSPost2010PropOp52
 70
     0
102
RTVSPost2010Prop53
 90
        2
102
RTVSPost2010PropOp53
 70
     1
102
RTVSPost2010Prop54
  1
strokes_ogs.tif
102
RTVSPost2010PropOp54
 70
     1
102
RTVSPost2010Prop55
280
     0
102
RTVSPost2010PropOp55
 70
     1
102
RTVSPost2010Prop56
140
1.0
102
RTVSPost2010PropOp56
 70
     1
102
RTVSPost2010Prop57
140
1.0
102
RTVSPost2010PropOp57
 70
     1
102
RTVSPropertyOp0
 70
     1
102
RTVSPropertyOp1
 70
     1
102
RTVSPropertyOp2
 70
     1
102
RTVSPropertyOp3
 70
     1
102
RTVSPropertyOp4
 70
     1
102
RTVSPropertyOp5
 70
     1
102
RTVSPropertyOp6
 70
     1
102
RTVSPropertyOp7
 70
     1
102
RTVSPropertyOp8
 70
     1
102
RTVSPropertyOp9
 70
     1
102
RTVSPropertyOp10
 70
     1
102
RTVSPropertyOp11
 70
     1
102
RTVSPropertyOp12
 70
     1
102
RTVSPropertyOp13
 70
     1
102
RTVSPropertyOp14
 70
     1
102
RTVSPropertyOp15
 70
     1
102
RTVSPropertyOp16
 70
     1
102
RTVSPropertyOp17
 70
     1
102
RTVSPropertyOp18
 70
     1
102
RTVSPropertyOp19
 70
     1
102
RTVSPropertyOp20
 70
     1
102
RTVSPropertyOp21
 70
     1
102
RTVSPropertyOp22
 70
     1
102
RTVSPropertyOp23
 70
     1
102
RTVSPropertyOp24
 70
     1
102
RTVSPropertyOp25
 70
     1
102
RTVSPropertyOp26
 70
     1
102
RTVSPropertyOp27
 70
     1
102
RTVSPropertyOp28
 70
     1
102
RTVSPropertyOp29
 70
     1
102
RTVSPropertyOp30
 70
     1
102
RTVSPropertyOp31
 70
     1
102
RTVSPropertyOp32
 70
     1
102
RTVSPropertyOp33
 70
     1
102
RTVSPropertyOp34
 70
     1
102
RTVSPropertyOp35
 70
     1
102
RTVSPropertyOp36
 70
     1
102
RTVSPropertyOp37
 70
     1
102
RTVSPropertyOp38
 70
     1
102
RTVSPropertyOp39
 70
     1
102
RTVSPropertyOp40
 70
     1
102
RTVSPropertyOp41
 70
     1
102
RTVSPropertyOp42
 70
     1
102
RTVSPropertyOp43
 70
     1
102
RTVSPropertyOp44
 70
     1
102
RTVSPropertyOp45
 70
     1
102
RTVSPropertyOp46
 70
     1
102
RTVSPropertyOp47
 70
     1
102
RTVSPropertyOp48
 70
     1
102
RTVSPropertyOp49
 70
     1
102
RTVSPropertyOp50
 70
     1
102
RTVSPropertyOp51
 70
     0
102
RTVSPropertyOp52
 70
     0
102
RTVSPropertyOp53
 70
     1
102
RTVSPropertyOp54
 70
     1
102
RTVSPropertyOp55
 70
     1
102
RTVSPropertyOp56
 70
     1
102
RTVSPropertyOp57
 70
     1
102
RTVSPropertyOp58
 70
     1
102
RTVSPropertyOp59
 70
     1
102
RTVSPropertyOp60
 70
     1
102
RTVSPropertyOp61
 70
     1
102
RTVSPropertyOp62
 70
     1
  0
XRECORD
  5
F5B
102
{ACAD_REACTORS
330
F5A
102
}
330
F5A
100
AcDbXrecord
280
     1
102
RTVSPost2010Prop28
280
     0
102
RTVSPost2010PropOp28
 70
     1
102
RTVSPost2010Prop29
280
     1
102
RTVSPost2010PropOp29
 70
     1
102
RTVSPost2010Prop30
280
     1
102
RTVSPost2010PropOp30
 70
     1
102
RTVSPost2010Prop31
280
     0
102
RTVSPost2010PropOp31
 70
     1
102
RTVSPost2010Prop32
280
     0
102
RTVSPost2010PropOp32
 70
     1
102
RTVSPost2010Prop33
280
     0
102
RTVSPost2010PropOp33
 70
     1
102
RTVSPost2010Prop34
280
     0
102
RTVSPost2010PropOp34
 70
     1
102
RTVSPost2010Prop35
280
     0
102
RTVSPost2010PropOp35
 70
     1
102
RTVSPost2010Prop36
280
     0
102
RTVSPost2010PropOp36
 70
     1
102
RTVSPost2010Prop37
 90
       50
102
RTVSPost2010PropOp37
 70
     1
102
RTVSPost2010Prop38
140
0.0
102
RTVSPost2010PropOp38
 70
     1
102
RTVSPost2010Prop39
140
1.0
102
RTVSPost2010PropOp39
 70
     1
102
RTVSPost2010Prop40
 90
        0
102
RTVSPost2010PropOp40
 70
     1
102
RTVSPost2010Prop41ColorIndex
 90
       18
102
RTVSPost2010Prop41ColorRGB
 90
        0
102
RTVSPost2010PropOp41
 70
     1
102
RTVSPost2010Prop42
 90
       50
102
RTVSPost2010PropOp42
 70
     1
102
RTVSPost2010Prop43
 90
        3
102
RTVSPost2010PropOp43
 70
     1
102
RTVSPost2010Prop44ColorIndex
 90
        5
102
RTVSPost2010Prop44ColorRGB
 90
      255
102
RTVSPost2010PropOp44
 70
     1
102
RTVSPost2010Prop45
280
     0
102
RTVSPost2010PropOp45
 70
     1
102
RTVSPost2010Prop46
 90
       50
102
RTVSPost2010PropOp46
 70
     1
102
RTVSPost2010Prop47
 90
       50
102
RTVSPost2010PropOp47
 70
     1
102
RTVSPost2010Prop48
 90
       50
102
RTVSPost2010PropOp48
 70
     1
102
RTVSPost2010Prop49
280
     0
102
RTVSPost2010PropOp49
 70
     1
102
RTVSPost2010Prop50
 90
       50
102
RTVSPost2010PropOp50
 70
     1
102
RTVSPost2010Prop51ColorIndex
 90
      256
102
RTVSPost2010Prop51ColorRGB
 90
-16777216
102
RTVSPost2010PropOp51
 70
     0
102
RTVSPost2010Prop52
140
1.0
102
RTVSPost2010PropOp52
 70
     0
102
RTVSPost2010Prop53
 90
        2
102
RTVSPost2010PropOp53
 70
     1
102
RTVSPost2010Prop54
  1
strokes_ogs.tif
102
RTVSPost2010PropOp54
 70
     1
102
RTVSPost2010Prop55
280
     0
102
RTVSPost2010PropOp55
 70
     1
102
RTVSPost2010Prop56
140
1.0
102
RTVSPost2010PropOp56
 70
     1
102
RTVSPost2010Prop57
140
1.0
102
RTVSPost2010PropOp57
 70
     1
102
RTVSPropertyOp0
 70
     1
102
RTVSPropertyOp1
 70
     1
102
RTVSPropertyOp2
 70
     1
102
RTVSPropertyOp3
 70
     1
102
RTVSPropertyOp4
 70
     1
102
RTVSPropertyOp5
 70
     1
102
RTVSPropertyOp6
 70
     1
102
RTVSPropertyOp7
 70
     1
102
RTVSPropertyOp8
 70
     1
102
RTVSPropertyOp9
 70
     1
102
RTVSPropertyOp10
 70
     1
102
RTVSPropertyOp11
 70
     1
102
RTVSPropertyOp12
 70
     1
102
RTVSPropertyOp13
 70
     1
102
RTVSPropertyOp14
 70
     1
102
RTVSPropertyOp15
 70
     1
102
RTVSPropertyOp16
 70
     1
102
RTVSPropertyOp17
 70
     1
102
RTVSPropertyOp18
 70
     1
102
RTVSPropertyOp19
 70
     1
102
RTVSPropertyOp20
 70
     1
102
RTVSPropertyOp21
 70
     1
102
RTVSPropertyOp22
 70
     1
102
RTVSPropertyOp23
 70
     1
102
RTVSPropertyOp24
 70
     1
102
RTVSPropertyOp25
 70
     1
102
RTVSPropertyOp26
 70
     1
102
RTVSPropertyOp27
 70
     1
102
RTVSPropertyOp28
 70
     1
102
RTVSPropertyOp29
 70
     1
102
RTVSPropertyOp30
 70
     1
102
RTVSPropertyOp31
 70
     1
102
RTVSPropertyOp32
 70
     1
102
RTVSPropertyOp33
 70
     1
102
RTVSPropertyOp34
 70
     1
102
RTVSPropertyOp35
 70
     1
102
RTVSPropertyOp36
 70
     1
102
RTVSPropertyOp37
 70
     1
102
RTVSPropertyOp38
 70
     1
102
RTVSPropertyOp39
 70
     1
102
RTVSPropertyOp40
 70
     1
102
RTVSPropertyOp41
 70
     1
102
RTVSPropertyOp42
 70
     1
102
RTVSPropertyOp43
 70
     1
102
RTVSPropertyOp44
 70
     1
102
RTVSPropertyOp45
 70
     1
102
RTVSPropertyOp46
 70
     1
102
RTVSPropertyOp47
 70
     1
102
RTVSPropertyOp48
 70
     1
102
RTVSPropertyOp49
 70
     1
102
RTVSPropertyOp50
 70
     1
102
RTVSPropertyOp51
 70
     0
102
RTVSPropertyOp52
 70
     0
102
RTVSPropertyOp53
 70
     1
102
RTVSPropertyOp54
 70
     1
102
RTVSPropertyOp55
 70
     1
102
RTVSPropertyOp56
 70
     1
102
RTVSPropertyOp57
 70
     1
102
RTVSPropertyOp58
 70
     1
102
RTVSPropertyOp59
 70
     1
102
RTVSPropertyOp60
 70
     1
102
RTVSPropertyOp61
 70
     1
102
RTVSPropertyOp62
 70
     1
  0
XRECORD
  5
F5D
102
{ACAD_REACTORS
330
F5C
102
}
330
F5C
100
AcDbXrecord
280
     1
102
RTVSPost2010Prop28
280
     0
102
RTVSPost2010PropOp28
 70
     1
102
RTVSPost2010Prop29
280
     1
102
RTVSPost2010PropOp29
 70
     1
102
RTVSPost2010Prop30
280
     1
102
RTVSPost2010PropOp30
 70
     1
102
RTVSPost2010Prop31
280
     0
102
RTVSPost2010PropOp31
 70
     1
102
RTVSPost2010Prop32
280
     0
102
RTVSPost2010PropOp32
 70
     1
102
RTVSPost2010Prop33
280
     0
102
RTVSPost2010PropOp33
 70
     1
102
RTVSPost2010Prop34
280
     0
102
RTVSPost2010PropOp34
 70
     1
102
RTVSPost2010Prop35
280
     0
102
RTVSPost2010PropOp35
 70
     1
102
RTVSPost2010Prop36
280
     0
102
RTVSPost2010PropOp36
 70
     1
102
RTVSPost2010Prop37
 90
       50
102
RTVSPost2010PropOp37
 70
     1
102
RTVSPost2010Prop38
140
0.0
102
RTVSPost2010PropOp38
 70
     1
102
RTVSPost2010Prop39
140
1.0
102
RTVSPost2010PropOp39
 70
     1
102
RTVSPost2010Prop40
 90
        0
102
RTVSPost2010PropOp40
 70
     1
102
RTVSPost2010Prop41ColorIndex
 90
       18
102
RTVSPost2010Prop41ColorRGB
 90
        0
102
RTVSPost2010PropOp41
 70
     1
102
RTVSPost2010Prop42
 90
       50
102
RTVSPost2010PropOp42
 70
     1
102
RTVSPost2010Prop43
 90
        3
102
RTVSPost2010PropOp43
 70
     1
102
RTVSPost2010Prop44ColorIndex
 90
        5
102
RTVSPost2010Prop44ColorRGB
 90
      255
102
RTVSPost2010PropOp44
 70
     1
102
RTVSPost2010Prop45
280
     0
102
RTVSPost2010PropOp45
 70
     1
102
RTVSPost2010Prop46
 90
       50
102
RTVSPost2010PropOp46
 70
     1
102
RTVSPost2010Prop47
 90
       50
102
RTVSPost2010PropOp47
 70
     1
102
RTVSPost2010Prop48
 90
       50
102
RTVSPost2010PropOp48
 70
     1
102
RTVSPost2010Prop49
280
     0
102
RTVSPost2010PropOp49
 70
     1
102
RTVSPost2010Prop50
 90
       50
102
RTVSPost2010PropOp50
 70
     1
102
RTVSPost2010Prop51ColorIndex
 90
      256
102
RTVSPost2010Prop51ColorRGB
 90
-16777216
102
RTVSPost2010PropOp51
 70
     0
102
RTVSPost2010Prop52
140
1.0
102
RTVSPost2010PropOp52
 70
     0
102
RTVSPost2010Prop53
 90
        2
102
RTVSPost2010PropOp53
 70
     1
102
RTVSPost2010Prop54
  1
strokes_ogs.tif
102
RTVSPost2010PropOp54
 70
     1
102
RTVSPost2010Prop55
280
     0
102
RTVSPost2010PropOp55
 70
     1
102
RTVSPost2010Prop56
140
1.0
102
RTVSPost2010PropOp56
 70
     1
102
RTVSPost2010Prop57
140
1.0
102
RTVSPost2010PropOp57
 70
     1
102
RTVSPropertyOp0
 70
     1
102
RTVSPropertyOp1
 70
     1
102
RTVSPropertyOp2
 70
     1
102
RTVSPropertyOp3
 70
     1
102
RTVSPropertyOp4
 70
     1
102
RTVSPropertyOp5
 70
     1
102
RTVSPropertyOp6
 70
     1
102
RTVSPropertyOp7
 70
     1
102
RTVSPropertyOp8
 70
     1
102
RTVSPropertyOp9
 70
     1
102
RTVSPropertyOp10
 70
     1
102
RTVSPropertyOp11
 70
     1
102
RTVSPropertyOp12
 70
     1
102
RTVSPropertyOp13
 70
     1
102
RTVSPropertyOp14
 70
     1
102
RTVSPropertyOp15
 70
     1
102
RTVSPropertyOp16
 70
     1
102
RTVSPropertyOp17
 70
     1
102
RTVSPropertyOp18
 70
     1
102
RTVSPropertyOp19
 70
     1
102
RTVSPropertyOp20
 70
     1
102
RTVSPropertyOp21
 70
     1
102
RTVSPropertyOp22
 70
     1
102
RTVSPropertyOp23
 70
     1
102
RTVSPropertyOp24
 70
     1
102
RTVSPropertyOp25
 70
     1
102
RTVSPropertyOp26
 70
     1
102
RTVSPropertyOp27
 70
     1
102
RTVSPropertyOp28
 70
     1
102
RTVSPropertyOp29
 70
     1
102
RTVSPropertyOp30
 70
     1
102
RTVSPropertyOp31
 70
     1
102
RTVSPropertyOp32
 70
     1
102
RTVSPropertyOp33
 70
     1
102
RTVSPropertyOp34
 70
     1
102
RTVSPropertyOp35
 70
     1
102
RTVSPropertyOp36
 70
     1
102
RTVSPropertyOp37
 70
     1
102
RTVSPropertyOp38
 70
     1
102
RTVSPropertyOp39
 70
     1
102
RTVSPropertyOp40
 70
     1
102
RTVSPropertyOp41
 70
     1
102
RTVSPropertyOp42
 70
     1
102
RTVSPropertyOp43
 70
     1
102
RTVSPropertyOp44
 70
     1
102
RTVSPropertyOp45
 70
     1
102
RTVSPropertyOp46
 70
     1
102
RTVSPropertyOp47
 70
     1
102
RTVSPropertyOp48
 70
     1
102
RTVSPropertyOp49
 70
     1
102
RTVSPropertyOp50
 70
     1
102
RTVSPropertyOp51
 70
     0
102
RTVSPropertyOp52
 70
     0
102
RTVSPropertyOp53
 70
     1
102
RTVSPropertyOp54
 70
     1
102
RTVSPropertyOp55
 70
     1
102
RTVSPropertyOp56
 70
     1
102
RTVSPropertyOp57
 70
     1
102
RTVSPropertyOp58
 70
     1
102
RTVSPropertyOp59
 70
     1
102
RTVSPropertyOp60
 70
     1
102
RTVSPropertyOp61
 70
     1
102
RTVSPropertyOp62
 70
     1
  0
XRECORD
  5
F79
102
{ACAD_REACTORS
330
F78
102
}
330
F78
100
AcDbXrecord
280
     1
102
RTVSPost2010Prop28
280
     0
102
RTVSPost2010PropOp28
 70
     1
102
RTVSPost2010Prop29
280
     1
102
RTVSPost2010PropOp29
 70
     1
102
RTVSPost2010Prop30
280
     1
102
RTVSPost2010PropOp30
 70
     1
102
RTVSPost2010Prop31
280
     0
102
RTVSPost2010PropOp31
 70
     1
102
RTVSPost2010Prop32
280
     0
102
RTVSPost2010PropOp32
 70
     1
102
RTVSPost2010Prop33
280
     0
102
RTVSPost2010PropOp33
 70
     1
102
RTVSPost2010Prop34
280
     0
102
RTVSPost2010PropOp34
 70
     1
102
RTVSPost2010Prop35
280
     0
102
RTVSPost2010PropOp35
 70
     1
102
RTVSPost2010Prop36
280
     0
102
RTVSPost2010PropOp36
 70
     1
102
RTVSPost2010Prop37
 90
       50
102
RTVSPost2010PropOp37
 70
     1
102
RTVSPost2010Prop38
140
0.0
102
RTVSPost2010PropOp38
 70
     1
102
RTVSPost2010Prop39
140
1.0
102
RTVSPost2010PropOp39
 70
     1
102
RTVSPost2010Prop40
 90
        0
102
RTVSPost2010PropOp40
 70
     1
102
RTVSPost2010Prop41ColorIndex
 90
       18
102
RTVSPost2010Prop41ColorRGB
 90
        0
102
RTVSPost2010PropOp41
 70
     1
102
RTVSPost2010Prop42
 90
       50
102
RTVSPost2010PropOp42
 70
     1
102
RTVSPost2010Prop43
 90
        3
102
RTVSPost2010PropOp43
 70
     1
102
RTVSPost2010Prop44ColorIndex
 90
        5
102
RTVSPost2010Prop44ColorRGB
 90
      255
102
RTVSPost2010PropOp44
 70
     1
102
RTVSPost2010Prop45
280
     0
102
RTVSPost2010PropOp45
 70
     1
102
RTVSPost2010Prop46
 90
       50
102
RTVSPost2010PropOp46
 70
     1
102
RTVSPost2010Prop47
 90
       50
102
RTVSPost2010PropOp47
 70
     1
102
RTVSPost2010Prop48
 90
       50
102
RTVSPost2010PropOp48
 70
     1
102
RTVSPost2010Prop49
280
     0
102
RTVSPost2010PropOp49
 70
     1
102
RTVSPost2010Prop50
 90
       50
102
RTVSPost2010PropOp50
 70
     1
102
RTVSPost2010Prop51ColorIndex
 90
      256
102
RTVSPost2010Prop51ColorRGB
 90
-16777216
102
RTVSPost2010PropOp51
 70
     0
102
RTVSPost2010Prop52
140
1.0
102
RTVSPost2010PropOp52
 70
     0
102
RTVSPost2010Prop53
 90
        2
102
RTVSPost2010PropOp53
 70
     1
102
RTVSPost2010Prop54
  1
strokes_ogs.tif
102
RTVSPost2010PropOp54
 70
     1
102
RTVSPost2010Prop55
280
     0
102
RTVSPost2010PropOp55
 70
     1
102
RTVSPost2010Prop56
140
1.0
102
RTVSPost2010PropOp56
 70
     1
102
RTVSPost2010Prop57
140
1.0
102
RTVSPost2010PropOp57
 70
     1
102
RTVSPropertyOp0
 70
     1
102
RTVSPropertyOp1
 70
     1
102
RTVSPropertyOp2
 70
     1
102
RTVSPropertyOp3
 70
     1
102
RTVSPropertyOp4
 70
     1
102
RTVSPropertyOp5
 70
     1
102
RTVSPropertyOp6
 70
     1
102
RTVSPropertyOp7
 70
     1
102
RTVSPropertyOp8
 70
     1
102
RTVSPropertyOp9
 70
     1
102
RTVSPropertyOp10
 70
     1
102
RTVSPropertyOp11
 70
     1
102
RTVSPropertyOp12
 70
     1
102
RTVSPropertyOp13
 70
     1
102
RTVSPropertyOp14
 70
     1
102
RTVSPropertyOp15
 70
     1
102
RTVSPropertyOp16
 70
     1
102
RTVSPropertyOp17
 70
     1
102
RTVSPropertyOp18
 70
     1
102
RTVSPropertyOp19
 70
     1
102
RTVSPropertyOp20
 70
     1
102
RTVSPropertyOp21
 70
     1
102
RTVSPropertyOp22
 70
     1
102
RTVSPropertyOp23
 70
     1
102
RTVSPropertyOp24
 70
     1
102
RTVSPropertyOp25
 70
     1
102
RTVSPropertyOp26
 70
     1
102
RTVSPropertyOp27
 70
     1
102
RTVSPropertyOp28
 70
     1
102
RTVSPropertyOp29
 70
     1
102
RTVSPropertyOp30
 70
     1
102
RTVSPropertyOp31
 70
     1
102
RTVSPropertyOp32
 70
     1
102
RTVSPropertyOp33
 70
     1
102
RTVSPropertyOp34
 70
     1
102
RTVSPropertyOp35
 70
     1
102
RTVSPropertyOp36
 70
     1
102
RTVSPropertyOp37
 70
     1
102
RTVSPropertyOp38
 70
     1
102
RTVSPropertyOp39
 70
     1
102
RTVSPropertyOp40
 70
     1
102
RTVSPropertyOp41
 70
     1
102
RTVSPropertyOp42
 70
     1
102
RTVSPropertyOp43
 70
     1
102
RTVSPropertyOp44
 70
     1
102
RTVSPropertyOp45
 70
     1
102
RTVSPropertyOp46
 70
     1
102
RTVSPropertyOp47
 70
     1
102
RTVSPropertyOp48
 70
     1
102
RTVSPropertyOp49
 70
     1
102
RTVSPropertyOp50
 70
     1
102
RTVSPropertyOp51
 70
     0
102
RTVSPropertyOp52
 70
     0
102
RTVSPropertyOp53
 70
     1
102
RTVSPropertyOp54
 70
     1
102
RTVSPropertyOp55
 70
     1
102
RTVSPropertyOp56
 70
     1
102
RTVSPropertyOp57
 70
     1
102
RTVSPropertyOp58
 70
     1
102
RTVSPropertyOp59
 70
     1
102
RTVSPropertyOp60
 70
     1
102
RTVSPropertyOp61
 70
     1
102
RTVSPropertyOp62
 70
     1
  0
XRECORD
  5
F85
102
{ACAD_REACTORS
330
F84
102
}
330
F84
100
AcDbXrecord
280
     1
102
RTVSPost2010Prop28
280
     0
102
RTVSPost2010PropOp28
 70
     0
102
RTVSPost2010Prop29
280
     1
102
RTVSPost2010PropOp29
 70
     0
102
RTVSPost2010Prop30
280
     1
102
RTVSPost2010PropOp30
 70
     0
102
RTVSPost2010Prop31
280
     0
102
RTVSPost2010PropOp31
 70
     0
102
RTVSPost2010Prop32
280
     0
102
RTVSPost2010PropOp32
 70
     0
102
RTVSPost2010Prop33
280
     0
102
RTVSPost2010PropOp33
 70
     1
102
RTVSPost2010Prop34
280
     0
102
RTVSPost2010PropOp34
 70
     1
102
RTVSPost2010Prop35
280
     0
102
RTVSPost2010PropOp35
 70
     1
102
RTVSPost2010Prop36
280
     0
102
RTVSPost2010PropOp36
 70
     1
102
RTVSPost2010Prop37
 90
       50
102
RTVSPost2010PropOp37
 70
     1
102
RTVSPost2010Prop38
140
0.0
102
RTVSPost2010PropOp38
 70
     1
102
RTVSPost2010Prop39
140
1.0
102
RTVSPost2010PropOp39
 70
     1
102
RTVSPost2010Prop40
 90
        0
102
RTVSPost2010PropOp40
 70
     1
102
RTVSPost2010Prop41ColorIndex
 90
       18
102
RTVSPost2010Prop41ColorRGB
 90
        0
102
RTVSPost2010PropOp41
 70
     1
102
RTVSPost2010Prop42
 90
       50
102
RTVSPost2010PropOp42
 70
     1
102
RTVSPost2010Prop43
 90
        3
102
RTVSPost2010PropOp43
 70
     1
102
RTVSPost2010Prop44ColorIndex
 90
        5
102
RTVSPost2010Prop44ColorRGB
 90
      255
102
RTVSPost2010PropOp44
 70
     1
102
RTVSPost2010Prop45
280
     0
102
RTVSPost2010PropOp45
 70
     1
102
RTVSPost2010Prop46
 90
       50
102
RTVSPost2010PropOp46
 70
     1
102
RTVSPost2010Prop47
 90
       50
102
RTVSPost2010PropOp47
 70
     1
102
RTVSPost2010Prop48
 90
       50
102
RTVSPost2010PropOp48
 70
     1
102
RTVSPost2010Prop49
280
     0
102
RTVSPost2010PropOp49
 70
     1
102
RTVSPost2010Prop50
 90
       50
102
RTVSPost2010PropOp50
 70
     1
102
RTVSPost2010Prop51ColorIndex
 90
      256
102
RTVSPost2010Prop51ColorRGB
 90
-16777216
102
RTVSPost2010PropOp51
 70
     0
102
RTVSPost2010Prop52
140
1.0
102
RTVSPost2010PropOp52
 70
     0
102
RTVSPost2010Prop53
 90
        2
102
RTVSPost2010PropOp53
 70
     1
102
RTVSPost2010Prop54
  1
strokes_ogs.tif
102
RTVSPost2010PropOp54
 70
     1
102
RTVSPost2010Prop55
280
     0
102
RTVSPost2010PropOp55
 70
     1
102
RTVSPost2010Prop56
140
1.0
102
RTVSPost2010PropOp56
 70
     1
102
RTVSPost2010Prop57
140
1.0
102
RTVSPost2010PropOp57
 70
     1
102
RTVSPropertyOp0
 70
     0
102
RTVSPropertyOp1
 70
     0
102
RTVSPropertyOp2
 70
     0
102
RTVSPropertyOp3
 70
     0
102
RTVSPropertyOp4
 70
     0
102
RTVSPropertyOp5
 70
     0
102
RTVSPropertyOp6
 70
     0
102
RTVSPropertyOp7
 70
     0
102
RTVSPropertyOp8
 70
     0
102
RTVSPropertyOp9
 70
     0
102
RTVSPropertyOp10
 70
     0
102
RTVSPropertyOp11
 70
     0
102
RTVSPropertyOp12
 70
     0
102
RTVSPropertyOp13
 70
     0
102
RTVSPropertyOp14
 70
     2
102
RTVSPropertyOp15
 70
     0
102
RTVSPropertyOp16
 70
     0
102
RTVSPropertyOp17
 70
     0
102
RTVSPropertyOp18
 70
     0
102
RTVSPropertyOp19
 70
     0
102
RTVSPropertyOp20
 70
     0
102
RTVSPropertyOp21
 70
     0
102
RTVSPropertyOp22
 70
     0
102
RTVSPropertyOp23
 70
     0
102
RTVSPropertyOp24
 70
     0
102
RTVSPropertyOp25
 70
     0
102
RTVSPropertyOp26
 70
     0
102
RTVSPropertyOp27
 70
     0
102
RTVSPropertyOp28
 70
     0
102
RTVSPropertyOp29
 70
     0
102
RTVSPropertyOp30
 70
     0
102
RTVSPropertyOp31
 70
     0
102
RTVSPropertyOp32
 70
     0
102
RTVSPropertyOp33
 70
     1
102
RTVSPropertyOp34
 70
     1
102
RTVSPropertyOp35
 70
     1
102
RTVSPropertyOp36
 70
     1
102
RTVSPropertyOp37
 70
     1
102
RTVSPropertyOp38
 70
     1
102
RTVSPropertyOp39
 70
     1
102
RTVSPropertyOp40
 70
     1
102
RTVSPropertyOp41
 70
     1
102
RTVSPropertyOp42
 70
     1
102
RTVSPropertyOp43
 70
     1
102
RTVSPropertyOp44
 70
     1
102
RTVSPropertyOp45
 70
     1
102
RTVSPropertyOp46
 70
     1
102
RTVSPropertyOp47
 70
     1
102
RTVSPropertyOp48
 70
     1
102
RTVSPropertyOp49
 70
     1
102
RTVSPropertyOp50
 70
     1
102
RTVSPropertyOp51
 70
     0
102
RTVSPropertyOp52
 70
     0
102
RTVSPropertyOp53
 70
     1
102
RTVSPropertyOp54
 70
     1
102
RTVSPropertyOp55
 70
     1
102
RTVSPropertyOp56
 70
     1
102
RTVSPropertyOp57
 70
     1
102
RTVSPropertyOp58
 70
     1
102
RTVSPropertyOp59
 70
     1
102
RTVSPropertyOp60
 70
     1
102
RTVSPropertyOp61
 70
     1
102
RTVSPropertyOp62
 70
     1
  0
XRECORD
  5
F71
102
{ACAD_REACTORS
330
F70
102
}
330
F70
100
AcDbXrecord
280
     1
102
RTVSPost2010Prop28
280
     0
102
RTVSPost2010PropOp28
 70
     1
102
RTVSPost2010Prop29
280
     1
102
RTVSPost2010PropOp29
 70
     1
102
RTVSPost2010Prop30
280
     1
102
RTVSPost2010PropOp30
 70
     1
102
RTVSPost2010Prop31
280
     0
102
RTVSPost2010PropOp31
 70
     1
102
RTVSPost2010Prop32
280
     0
102
RTVSPost2010PropOp32
 70
     1
102
RTVSPost2010Prop33
280
     0
102
RTVSPost2010PropOp33
 70
     1
102
RTVSPost2010Prop34
280
     0
102
RTVSPost2010PropOp34
 70
     1
102
RTVSPost2010Prop35
280
     0
102
RTVSPost2010PropOp35
 70
     1
102
RTVSPost2010Prop36
280
     0
102
RTVSPost2010PropOp36
 70
     1
102
RTVSPost2010Prop37
 90
       50
102
RTVSPost2010PropOp37
 70
     1
102
RTVSPost2010Prop38
140
0.0
102
RTVSPost2010PropOp38
 70
     1
102
RTVSPost2010Prop39
140
1.0
102
RTVSPost2010PropOp39
 70
     1
102
RTVSPost2010Prop40
 90
        0
102
RTVSPost2010PropOp40
 70
     1
102
RTVSPost2010Prop41ColorIndex
 90
       18
102
RTVSPost2010Prop41ColorRGB
 90
        0
102
RTVSPost2010PropOp41
 70
     1
102
RTVSPost2010Prop42
 90
       50
102
RTVSPost2010PropOp42
 70
     1
102
RTVSPost2010Prop43
 90
        3
102
RTVSPost2010PropOp43
 70
     1
102
RTVSPost2010Prop44ColorIndex
 90
        5
102
RTVSPost2010Prop44ColorRGB
 90
      255
102
RTVSPost2010PropOp44
 70
     1
102
RTVSPost2010Prop45
280
     0
102
RTVSPost2010PropOp45
 70
     1
102
RTVSPost2010Prop46
 90
       50
102
RTVSPost2010PropOp46
 70
     1
102
RTVSPost2010Prop47
 90
       50
102
RTVSPost2010PropOp47
 70
     1
102
RTVSPost2010Prop48
 90
       50
102
RTVSPost2010PropOp48
 70
     1
102
RTVSPost2010Prop49
280
     0
102
RTVSPost2010PropOp49
 70
     1
102
RTVSPost2010Prop50
 90
       50
102
RTVSPost2010PropOp50
 70
     1
102
RTVSPost2010Prop51ColorIndex
 90
      256
102
RTVSPost2010Prop51ColorRGB
 90
-16777216
102
RTVSPost2010PropOp51
 70
     0
102
RTVSPost2010Prop52
140
1.0
102
RTVSPost2010PropOp52
 70
     0
102
RTVSPost2010Prop53
 90
        2
102
RTVSPost2010PropOp53
 70
     1
102
RTVSPost2010Prop54
  1
strokes_ogs.tif
102
RTVSPost2010PropOp54
 70
     1
102
RTVSPost2010Prop55
280
     0
102
RTVSPost2010PropOp55
 70
     1
102
RTVSPost2010Prop56
140
1.0
102
RTVSPost2010PropOp56
 70
     1
102
RTVSPost2010Prop57
140
1.0
102
RTVSPost2010PropOp57
 70
     1
102
RTVSPropertyOp0
 70
     1
102
RTVSPropertyOp1
 70
     1
102
RTVSPropertyOp2
 70
     1
102
RTVSPropertyOp3
 70
     1
102
RTVSPropertyOp4
 70
     1
102
RTVSPropertyOp5
 70
     1
102
RTVSPropertyOp6
 70
     1
102
RTVSPropertyOp7
 70
     1
102
RTVSPropertyOp8
 70
     1
102
RTVSPropertyOp9
 70
     1
102
RTVSPropertyOp10
 70
     1
102
RTVSPropertyOp11
 70
     1
102
RTVSPropertyOp12
 70
     1
102
RTVSPropertyOp13
 70
     1
102
RTVSPropertyOp14
 70
     1
102
RTVSPropertyOp15
 70
     1
102
RTVSPropertyOp16
 70
     1
102
RTVSPropertyOp17
 70
     1
102
RTVSPropertyOp18
 70
     1
102
RTVSPropertyOp19
 70
     1
102
RTVSPropertyOp20
 70
     1
102
RTVSPropertyOp21
 70
     1
102
RTVSPropertyOp22
 70
     1
102
RTVSPropertyOp23
 70
     1
102
RTVSPropertyOp24
 70
     1
102
RTVSPropertyOp25
 70
     1
102
RTVSPropertyOp26
 70
     1
102
RTVSPropertyOp27
 70
     1
102
RTVSPropertyOp28
 70
     1
102
RTVSPropertyOp29
 70
     1
102
RTVSPropertyOp30
 70
     1
102
RTVSPropertyOp31
 70
     1
102
RTVSPropertyOp32
 70
     1
102
RTVSPropertyOp33
 70
     1
102
RTVSPropertyOp34
 70
     1
102
RTVSPropertyOp35
 70
     1
102
RTVSPropertyOp36
 70
     1
102
RTVSPropertyOp37
 70
     1
102
RTVSPropertyOp38
 70
     1
102
RTVSPropertyOp39
 70
     1
102
RTVSPropertyOp40
 70
     1
102
RTVSPropertyOp41
 70
     1
102
RTVSPropertyOp42
 70
     1
102
RTVSPropertyOp43
 70
     1
102
RTVSPropertyOp44
 70
     1
102
RTVSPropertyOp45
 70
     1
102
RTVSPropertyOp46
 70
     1
102
RTVSPropertyOp47
 70
     1
102
RTVSPropertyOp48
 70
     1
102
RTVSPropertyOp49
 70
     1
102
RTVSPropertyOp50
 70
     1
102
RTVSPropertyOp51
 70
     0
102
RTVSPropertyOp52
 70
     0
102
RTVSPropertyOp53
 70
     1
102
RTVSPropertyOp54
 70
     1
102
RTVSPropertyOp55
 70
     1
102
RTVSPropertyOp56
 70
     1
102
RTVSPropertyOp57
 70
     1
102
RTVSPropertyOp58
 70
     1
102
RTVSPropertyOp59
 70
     1
102
RTVSPropertyOp60
 70
     1
102
RTVSPropertyOp61
 70
     1
102
RTVSPropertyOp62
 70
     1
  0
XRECORD
  5
F87
102
{ACAD_REACTORS
330
F86
102
}
330
F86
100
AcDbXrecord
280
     1
102
RTVSPost2010Prop28
280
     0
102
RTVSPost2010PropOp28
 70
     0
102
RTVSPost2010Prop29
280
     1
102
RTVSPost2010PropOp29
 70
     0
102
RTVSPost2010Prop30
280
     1
102
RTVSPost2010PropOp30
 70
     0
102
RTVSPost2010Prop31
280
     0
102
RTVSPost2010PropOp31
 70
     0
102
RTVSPost2010Prop32
280
     0
102
RTVSPost2010PropOp32
 70
     0
102
RTVSPost2010Prop33
280
     0
102
RTVSPost2010PropOp33
 70
     1
102
RTVSPost2010Prop34
280
     0
102
RTVSPost2010PropOp34
 70
     1
102
RTVSPost2010Prop35
280
     0
102
RTVSPost2010PropOp35
 70
     1
102
RTVSPost2010Prop36
280
     0
102
RTVSPost2010PropOp36
 70
     1
102
RTVSPost2010Prop37
 90
       50
102
RTVSPost2010PropOp37
 70
     1
102
RTVSPost2010Prop38
140
0.0
102
RTVSPost2010PropOp38
 70
     1
102
RTVSPost2010Prop39
140
1.0
102
RTVSPost2010PropOp39
 70
     1
102
RTVSPost2010Prop40
 90
        0
102
RTVSPost2010PropOp40
 70
     1
102
RTVSPost2010Prop41ColorIndex
 90
       18
102
RTVSPost2010Prop41ColorRGB
 90
        0
102
RTVSPost2010PropOp41
 70
     1
102
RTVSPost2010Prop42
 90
       50
102
RTVSPost2010PropOp42
 70
     1
102
RTVSPost2010Prop43
 90
        3
102
RTVSPost2010PropOp43
 70
     1
102
RTVSPost2010Prop44ColorIndex
 90
        5
102
RTVSPost2010Prop44ColorRGB
 90
      255
102
RTVSPost2010PropOp44
 70
     1
102
RTVSPost2010Prop45
280
     0
102
RTVSPost2010PropOp45
 70
     1
102
RTVSPost2010Prop46
 90
       50
102
RTVSPost2010PropOp46
 70
     1
102
RTVSPost2010Prop47
 90
       50
102
RTVSPost2010PropOp47
 70
     1
102
RTVSPost2010Prop48
 90
       50
102
RTVSPost2010PropOp48
 70
     1
102
RTVSPost2010Prop49
280
     0
102
RTVSPost2010PropOp49
 70
     1
102
RTVSPost2010Prop50
 90
       50
102
RTVSPost2010PropOp50
 70
     1
102
RTVSPost2010Prop51ColorIndex
 90
      256
102
RTVSPost2010Prop51ColorRGB
 90
-16777216
102
RTVSPost2010PropOp51
 70
     0
102
RTVSPost2010Prop52
140
1.0
102
RTVSPost2010PropOp52
 70
     0
102
RTVSPost2010Prop53
 90
        2
102
RTVSPost2010PropOp53
 70
     1
102
RTVSPost2010Prop54
  1
strokes_ogs.tif
102
RTVSPost2010PropOp54
 70
     1
102
RTVSPost2010Prop55
280
     0
102
RTVSPost2010PropOp55
 70
     1
102
RTVSPost2010Prop56
140
1.0
102
RTVSPost2010PropOp56
 70
     1
102
RTVSPost2010Prop57
140
1.0
102
RTVSPost2010PropOp57
 70
     1
102
RTVSPropertyOp0
 70
     0
102
RTVSPropertyOp1
 70
     0
102
RTVSPropertyOp2
 70
     0
102
RTVSPropertyOp3
 70
     0
102
RTVSPropertyOp4
 70
     0
102
RTVSPropertyOp5
 70
     0
102
RTVSPropertyOp6
 70
     0
102
RTVSPropertyOp7
 70
     0
102
RTVSPropertyOp8
 70
     0
102
RTVSPropertyOp9
 70
     0
102
RTVSPropertyOp10
 70
     0
102
RTVSPropertyOp11
 70
     0
102
RTVSPropertyOp12
 70
     0
102
RTVSPropertyOp13
 70
     0
102
RTVSPropertyOp14
 70
     2
102
RTVSPropertyOp15
 70
     0
102
RTVSPropertyOp16
 70
     0
102
RTVSPropertyOp17
 70
     0
102
RTVSPropertyOp18
 70
     0
102
RTVSPropertyOp19
 70
     0
102
RTVSPropertyOp20
 70
     0
102
RTVSPropertyOp21
 70
     0
102
RTVSPropertyOp22
 70
     0
102
RTVSPropertyOp23
 70
     0
102
RTVSPropertyOp24
 70
     0
102
RTVSPropertyOp25
 70
     0
102
RTVSPropertyOp26
 70
     0
102
RTVSPropertyOp27
 70
     0
102
RTVSPropertyOp28
 70
     0
102
RTVSPropertyOp29
 70
     0
102
RTVSPropertyOp30
 70
     0
102
RTVSPropertyOp31
 70
     0
102
RTVSPropertyOp32
 70
     0
102
RTVSPropertyOp33
 70
     1
102
RTVSPropertyOp34
 70
     1
102
RTVSPropertyOp35
 70
     1
102
RTVSPropertyOp36
 70
     1
102
RTVSPropertyOp37
 70
     1
102
RTVSPropertyOp38
 70
     1
102
RTVSPropertyOp39
 70
     1
102
RTVSPropertyOp40
 70
     1
102
RTVSPropertyOp41
 70
     1
102
RTVSPropertyOp42
 70
     1
102
RTVSPropertyOp43
 70
     1
102
RTVSPropertyOp44
 70
     1
102
RTVSPropertyOp45
 70
     1
102
RTVSPropertyOp46
 70
     1
102
RTVSPropertyOp47
 70
     1
102
RTVSPropertyOp48
 70
     1
102
RTVSPropertyOp49
 70
     1
102
RTVSPropertyOp50
 70
     1
102
RTVSPropertyOp51
 70
     0
102
RTVSPropertyOp52
 70
     0
102
RTVSPropertyOp53
 70
     1
102
RTVSPropertyOp54
 70
     1
102
RTVSPropertyOp55
 70
     1
102
RTVSPropertyOp56
 70
     1
102
RTVSPropertyOp57
 70
     1
102
RTVSPropertyOp58
 70
     1
102
RTVSPropertyOp59
 70
     1
102
RTVSPropertyOp60
 70
     1
102
RTVSPropertyOp61
 70
     1
102
RTVSPropertyOp62
 70
     1
  0
XRECORD
  5
F69
102
{ACAD_REACTORS
330
F68
102
}
330
F68
100
AcDbXrecord
280
     1
102
RTVSPost2010Prop28
280
     0
102
RTVSPost2010PropOp28
 70
     1
102
RTVSPost2010Prop29
280
     1
102
RTVSPost2010PropOp29
 70
     1
102
RTVSPost2010Prop30
280
     1
102
RTVSPost2010PropOp30
 70
     1
102
RTVSPost2010Prop31
280
     0
102
RTVSPost2010PropOp31
 70
     1
102
RTVSPost2010Prop32
280
     0
102
RTVSPost2010PropOp32
 70
     1
102
RTVSPost2010Prop33
280
     0
102
RTVSPost2010PropOp33
 70
     1
102
RTVSPost2010Prop34
280
     0
102
RTVSPost2010PropOp34
 70
     1
102
RTVSPost2010Prop35
280
     0
102
RTVSPost2010PropOp35
 70
     1
102
RTVSPost2010Prop36
280
     0
102
RTVSPost2010PropOp36
 70
     1
102
RTVSPost2010Prop37
 90
       50
102
RTVSPost2010PropOp37
 70
     1
102
RTVSPost2010Prop38
140
0.0
102
RTVSPost2010PropOp38
 70
     1
102
RTVSPost2010Prop39
140
1.0
102
RTVSPost2010PropOp39
 70
     1
102
RTVSPost2010Prop40
 90
        0
102
RTVSPost2010PropOp40
 70
     1
102
RTVSPost2010Prop41ColorIndex
 90
       18
102
RTVSPost2010Prop41ColorRGB
 90
        0
102
RTVSPost2010PropOp41
 70
     1
102
RTVSPost2010Prop42
 90
       50
102
RTVSPost2010PropOp42
 70
     1
102
RTVSPost2010Prop43
 90
        3
102
RTVSPost2010PropOp43
 70
     1
102
RTVSPost2010Prop44ColorIndex
 90
        5
102
RTVSPost2010Prop44ColorRGB
 90
      255
102
RTVSPost2010PropOp44
 70
     1
102
RTVSPost2010Prop45
280
     0
102
RTVSPost2010PropOp45
 70
     1
102
RTVSPost2010Prop46
 90
       50
102
RTVSPost2010PropOp46
 70
     1
102
RTVSPost2010Prop47
 90
       50
102
RTVSPost2010PropOp47
 70
     1
102
RTVSPost2010Prop48
 90
       50
102
RTVSPost2010PropOp48
 70
     1
102
RTVSPost2010Prop49
280
     0
102
RTVSPost2010PropOp49
 70
     1
102
RTVSPost2010Prop50
 90
       50
102
RTVSPost2010PropOp50
 70
     1
102
RTVSPost2010Prop51ColorIndex
 90
      256
102
RTVSPost2010Prop51ColorRGB
 90
-16777216
102
RTVSPost2010PropOp51
 70
     0
102
RTVSPost2010Prop52
140
1.0
102
RTVSPost2010PropOp52
 70
     0
102
RTVSPost2010Prop53
 90
        2
102
RTVSPost2010PropOp53
 70
     1
102
RTVSPost2010Prop54
  1
strokes_ogs.tif
102
RTVSPost2010PropOp54
 70
     1
102
RTVSPost2010Prop55
280
     0
102
RTVSPost2010PropOp55
 70
     1
102
RTVSPost2010Prop56
140
1.0
102
RTVSPost2010PropOp56
 70
     1
102
RTVSPost2010Prop57
140
1.0
102
RTVSPost2010PropOp57
 70
     1
102
RTVSPropertyOp0
 70
     1
102
RTVSPropertyOp1
 70
     1
102
RTVSPropertyOp2
 70
     1
102
RTVSPropertyOp3
 70
     1
102
RTVSPropertyOp4
 70
     1
102
RTVSPropertyOp5
 70
     1
102
RTVSPropertyOp6
 70
     1
102
RTVSPropertyOp7
 70
     1
102
RTVSPropertyOp8
 70
     1
102
RTVSPropertyOp9
 70
     1
102
RTVSPropertyOp10
 70
     1
102
RTVSPropertyOp11
 70
     1
102
RTVSPropertyOp12
 70
     1
102
RTVSPropertyOp13
 70
     1
102
RTVSPropertyOp14
 70
     1
102
RTVSPropertyOp15
 70
     1
102
RTVSPropertyOp16
 70
     1
102
RTVSPropertyOp17
 70
     1
102
RTVSPropertyOp18
 70
     1
102
RTVSPropertyOp19
 70
     1
102
RTVSPropertyOp20
 70
     1
102
RTVSPropertyOp21
 70
     1
102
RTVSPropertyOp22
 70
     1
102
RTVSPropertyOp23
 70
     1
102
RTVSPropertyOp24
 70
     1
102
RTVSPropertyOp25
 70
     1
102
RTVSPropertyOp26
 70
     1
102
RTVSPropertyOp27
 70
     1
102
RTVSPropertyOp28
 70
     1
102
RTVSPropertyOp29
 70
     1
102
RTVSPropertyOp30
 70
     1
102
RTVSPropertyOp31
 70
     1
102
RTVSPropertyOp32
 70
     1
102
RTVSPropertyOp33
 70
     1
102
RTVSPropertyOp34
 70
     1
102
RTVSPropertyOp35
 70
     1
102
RTVSPropertyOp36
 70
     1
102
RTVSPropertyOp37
 70
     1
102
RTVSPropertyOp38
 70
     1
102
RTVSPropertyOp39
 70
     1
102
RTVSPropertyOp40
 70
     1
102
RTVSPropertyOp41
 70
     1
102
RTVSPropertyOp42
 70
     1
102
RTVSPropertyOp43
 70
     1
102
RTVSPropertyOp44
 70
     1
102
RTVSPropertyOp45
 70
     1
102
RTVSPropertyOp46
 70
     1
102
RTVSPropertyOp47
 70
     1
102
RTVSPropertyOp48
 70
     1
102
RTVSPropertyOp49
 70
     1
102
RTVSPropertyOp50
 70
     1
102
RTVSPropertyOp51
 70
     0
102
RTVSPropertyOp52
 70
     0
102
RTVSPropertyOp53
 70
     1
102
RTVSPropertyOp54
 70
     1
102
RTVSPropertyOp55
 70
     1
102
RTVSPropertyOp56
 70
     1
102
RTVSPropertyOp57
 70
     1
102
RTVSPropertyOp58
 70
     1
102
RTVSPropertyOp59
 70
     1
102
RTVSPropertyOp60
 70
     1
102
RTVSPropertyOp61
 70
     1
102
RTVSPropertyOp62
 70
     1
  0
XRECORD
  5
F83
102
{ACAD_REACTORS
330
F82
102
}
330
F82
100
AcDbXrecord
280
     1
102
RTVSPost2010Prop28
280
     0
102
RTVSPost2010PropOp28
 70
     1
102
RTVSPost2010Prop29
280
     1
102
RTVSPost2010PropOp29
 70
     1
102
RTVSPost2010Prop30
280
     1
102
RTVSPost2010PropOp30
 70
     1
102
RTVSPost2010Prop31
280
     0
102
RTVSPost2010PropOp31
 70
     1
102
RTVSPost2010Prop32
280
     0
102
RTVSPost2010PropOp32
 70
     1
102
RTVSPost2010Prop33
280
     0
102
RTVSPost2010PropOp33
 70
     1
102
RTVSPost2010Prop34
280
     0
102
RTVSPost2010PropOp34
 70
     1
102
RTVSPost2010Prop35
280
     0
102
RTVSPost2010PropOp35
 70
     1
102
RTVSPost2010Prop36
280
     0
102
RTVSPost2010PropOp36
 70
     1
102
RTVSPost2010Prop37
 90
       50
102
RTVSPost2010PropOp37
 70
     1
102
RTVSPost2010Prop38
140
0.0
102
RTVSPost2010PropOp38
 70
     1
102
RTVSPost2010Prop39
140
1.0
102
RTVSPost2010PropOp39
 70
     1
102
RTVSPost2010Prop40
 90
        0
102
RTVSPost2010PropOp40
 70
     1
102
RTVSPost2010Prop41ColorIndex
 90
       18
102
RTVSPost2010Prop41ColorRGB
 90
        0
102
RTVSPost2010PropOp41
 70
     1
102
RTVSPost2010Prop42
 90
       50
102
RTVSPost2010PropOp42
 70
     1
102
RTVSPost2010Prop43
 90
        3
102
RTVSPost2010PropOp43
 70
     1
102
RTVSPost2010Prop44ColorIndex
 90
        5
102
RTVSPost2010Prop44ColorRGB
 90
      255
102
RTVSPost2010PropOp44
 70
     1
102
RTVSPost2010Prop45
280
     0
102
RTVSPost2010PropOp45
 70
     1
102
RTVSPost2010Prop46
 90
       50
102
RTVSPost2010PropOp46
 70
     1
102
RTVSPost2010Prop47
 90
       50
102
RTVSPost2010PropOp47
 70
     1
102
RTVSPost2010Prop48
 90
       50
102
RTVSPost2010PropOp48
 70
     1
102
RTVSPost2010Prop49
280
     0
102
RTVSPost2010PropOp49
 70
     1
102
RTVSPost2010Prop50
 90
       50
102
RTVSPost2010PropOp50
 70
     1
102
RTVSPost2010Prop51ColorIndex
 90
      256
102
RTVSPost2010Prop51ColorRGB
 90
-16777216
102
RTVSPost2010PropOp51
 70
     0
102
RTVSPost2010Prop52
140
1.0
102
RTVSPost2010PropOp52
 70
     0
102
RTVSPost2010Prop53
 90
        2
102
RTVSPost2010PropOp53
 70
     1
102
RTVSPost2010Prop54
  1
strokes_ogs.tif
102
RTVSPost2010PropOp54
 70
     1
102
RTVSPost2010Prop55
280
     0
102
RTVSPost2010PropOp55
 70
     1
102
RTVSPost2010Prop56
140
1.0
102
RTVSPost2010PropOp56
 70
     1
102
RTVSPost2010Prop57
140
1.0
102
RTVSPost2010PropOp57
 70
     1
102
RTVSPropertyOp0
 70
     1
102
RTVSPropertyOp1
 70
     1
102
RTVSPropertyOp2
 70
     1
102
RTVSPropertyOp3
 70
     1
102
RTVSPropertyOp4
 70
     1
102
RTVSPropertyOp5
 70
     1
102
RTVSPropertyOp6
 70
     1
102
RTVSPropertyOp7
 70
     1
102
RTVSPropertyOp8
 70
     1
102
RTVSPropertyOp9
 70
     1
102
RTVSPropertyOp10
 70
     1
102
RTVSPropertyOp11
 70
     1
102
RTVSPropertyOp12
 70
     1
102
RTVSPropertyOp13
 70
     1
102
RTVSPropertyOp14
 70
     1
102
RTVSPropertyOp15
 70
     1
102
RTVSPropertyOp16
 70
     1
102
RTVSPropertyOp17
 70
     1
102
RTVSPropertyOp18
 70
     1
102
RTVSPropertyOp19
 70
     1
102
RTVSPropertyOp20
 70
     1
102
RTVSPropertyOp21
 70
     1
102
RTVSPropertyOp22
 70
     1
102
RTVSPropertyOp23
 70
     1
102
RTVSPropertyOp24
 70
     1
102
RTVSPropertyOp25
 70
     1
102
RTVSPropertyOp26
 70
     1
102
RTVSPropertyOp27
 70
     1
102
RTVSPropertyOp28
 70
     1
102
RTVSPropertyOp29
 70
     1
102
RTVSPropertyOp30
 70
     1
102
RTVSPropertyOp31
 70
     1
102
RTVSPropertyOp32
 70
     1
102
RTVSPropertyOp33
 70
     1
102
RTVSPropertyOp34
 70
     1
102
RTVSPropertyOp35
 70
     1
102
RTVSPropertyOp36
 70
     1
102
RTVSPropertyOp37
 70
     1
102
RTVSPropertyOp38
 70
     1
102
RTVSPropertyOp39
 70
     1
102
RTVSPropertyOp40
 70
     1
102
RTVSPropertyOp41
 70
     1
102
RTVSPropertyOp42
 70
     1
102
RTVSPropertyOp43
 70
     1
102
RTVSPropertyOp44
 70
     1
102
RTVSPropertyOp45
 70
     1
102
RTVSPropertyOp46
 70
     1
102
RTVSPropertyOp47
 70
     1
102
RTVSPropertyOp48
 70
     1
102
RTVSPropertyOp49
 70
     1
102
RTVSPropertyOp50
 70
     1
102
RTVSPropertyOp51
 70
     0
102
RTVSPropertyOp52
 70
     0
102
RTVSPropertyOp53
 70
     1
102
RTVSPropertyOp54
 70
     1
102
RTVSPropertyOp55
 70
     1
102
RTVSPropertyOp56
 70
     1
102
RTVSPropertyOp57
 70
     1
102
RTVSPropertyOp58
 70
     1
102
RTVSPropertyOp59
 70
     1
102
RTVSPropertyOp60
 70
     1
102
RTVSPropertyOp61
 70
     1
102
RTVSPropertyOp62
 70
     1
  0
XRECORD
  5
F81
102
{ACAD_REACTORS
330
F80
102
}
330
F80
100
AcDbXrecord
280
     1
102
RTVSPost2010Prop28
280
     0
102
RTVSPost2010PropOp28
 70
     1
102
RTVSPost2010Prop29
280
     1
102
RTVSPost2010PropOp29
 70
     1
102
RTVSPost2010Prop30
280
     1
102
RTVSPost2010PropOp30
 70
     1
102
RTVSPost2010Prop31
280
     0
102
RTVSPost2010PropOp31
 70
     1
102
RTVSPost2010Prop32
280
     0
102
RTVSPost2010PropOp32
 70
     1
102
RTVSPost2010Prop33
280
     0
102
RTVSPost2010PropOp33
 70
     1
102
RTVSPost2010Prop34
280
     0
102
RTVSPost2010PropOp34
 70
     1
102
RTVSPost2010Prop35
280
     0
102
RTVSPost2010PropOp35
 70
     1
102
RTVSPost2010Prop36
280
     0
102
RTVSPost2010PropOp36
 70
     1
102
RTVSPost2010Prop37
 90
       50
102
RTVSPost2010PropOp37
 70
     1
102
RTVSPost2010Prop38
140
0.0
102
RTVSPost2010PropOp38
 70
     1
102
RTVSPost2010Prop39
140
1.0
102
RTVSPost2010PropOp39
 70
     1
102
RTVSPost2010Prop40
 90
        0
102
RTVSPost2010PropOp40
 70
     1
102
RTVSPost2010Prop41ColorIndex
 90
       18
102
RTVSPost2010Prop41ColorRGB
 90
        0
102
RTVSPost2010PropOp41
 70
     1
102
RTVSPost2010Prop42
 90
       50
102
RTVSPost2010PropOp42
 70
     1
102
RTVSPost2010Prop43
 90
        3
102
RTVSPost2010PropOp43
 70
     1
102
RTVSPost2010Prop44ColorIndex
 90
        5
102
RTVSPost2010Prop44ColorRGB
 90
      255
102
RTVSPost2010PropOp44
 70
     1
102
RTVSPost2010Prop45
280
     0
102
RTVSPost2010PropOp45
 70
     1
102
RTVSPost2010Prop46
 90
       50
102
RTVSPost2010PropOp46
 70
     1
102
RTVSPost2010Prop47
 90
       50
102
RTVSPost2010PropOp47
 70
     1
102
RTVSPost2010Prop48
 90
       50
102
RTVSPost2010PropOp48
 70
     1
102
RTVSPost2010Prop49
280
     0
102
RTVSPost2010PropOp49
 70
     1
102
RTVSPost2010Prop50
 90
       50
102
RTVSPost2010PropOp50
 70
     1
102
RTVSPost2010Prop51ColorIndex
 90
      256
102
RTVSPost2010Prop51ColorRGB
 90
-16777216
102
RTVSPost2010PropOp51
 70
     0
102
RTVSPost2010Prop52
140
1.0
102
RTVSPost2010PropOp52
 70
     0
102
RTVSPost2010Prop53
 90
        2
102
RTVSPost2010PropOp53
 70
     1
102
RTVSPost2010Prop54
  1
strokes_ogs.tif
102
RTVSPost2010PropOp54
 70
     1
102
RTVSPost2010Prop55
280
     0
102
RTVSPost2010PropOp55
 70
     1
102
RTVSPost2010Prop56
140
1.0
102
RTVSPost2010PropOp56
 70
     1
102
RTVSPost2010Prop57
140
1.0
102
RTVSPost2010PropOp57
 70
     1
102
RTVSPropertyOp0
 70
     1
102
RTVSPropertyOp1
 70
     1
102
RTVSPropertyOp2
 70
     1
102
RTVSPropertyOp3
 70
     1
102
RTVSPropertyOp4
 70
     1
102
RTVSPropertyOp5
 70
     1
102
RTVSPropertyOp6
 70
     1
102
RTVSPropertyOp7
 70
     1
102
RTVSPropertyOp8
 70
     1
102
RTVSPropertyOp9
 70
     1
102
RTVSPropertyOp10
 70
     1
102
RTVSPropertyOp11
 70
     1
102
RTVSPropertyOp12
 70
     1
102
RTVSPropertyOp13
 70
     1
102
RTVSPropertyOp14
 70
     1
102
RTVSPropertyOp15
 70
     1
102
RTVSPropertyOp16
 70
     1
102
RTVSPropertyOp17
 70
     1
102
RTVSPropertyOp18
 70
     1
102
RTVSPropertyOp19
 70
     1
102
RTVSPropertyOp20
 70
     1
102
RTVSPropertyOp21
 70
     1
102
RTVSPropertyOp22
 70
     1
102
RTVSPropertyOp23
 70
     1
102
RTVSPropertyOp24
 70
     1
102
RTVSPropertyOp25
 70
     1
102
RTVSPropertyOp26
 70
     1
102
RTVSPropertyOp27
 70
     1
102
RTVSPropertyOp28
 70
     1
102
RTVSPropertyOp29
 70
     1
102
RTVSPropertyOp30
 70
     1
102
RTVSPropertyOp31
 70
     1
102
RTVSPropertyOp32
 70
     1
102
RTVSPropertyOp33
 70
     1
102
RTVSPropertyOp34
 70
     1
102
RTVSPropertyOp35
 70
     1
102
RTVSPropertyOp36
 70
     1
102
RTVSPropertyOp37
 70
     1
102
RTVSPropertyOp38
 70
     1
102
RTVSPropertyOp39
 70
     1
102
RTVSPropertyOp40
 70
     1
102
RTVSPropertyOp41
 70
     1
102
RTVSPropertyOp42
 70
     1
102
RTVSPropertyOp43
 70
     1
102
RTVSPropertyOp44
 70
     1
102
RTVSPropertyOp45
 70
     1
102
RTVSPropertyOp46
 70
     1
102
RTVSPropertyOp47
 70
     1
102
RTVSPropertyOp48
 70
     1
102
RTVSPropertyOp49
 70
     1
102
RTVSPropertyOp50
 70
     1
102
RTVSPropertyOp51
 70
     0
102
RTVSPropertyOp52
 70
     0
102
RTVSPropertyOp53
 70
     1
102
RTVSPropertyOp54
 70
     1
102
RTVSPropertyOp55
 70
     1
102
RTVSPropertyOp56
 70
     1
102
RTVSPropertyOp57
 70
     1
102
RTVSPropertyOp58
 70
     1
102
RTVSPropertyOp59
 70
     1
102
RTVSPropertyOp60
 70
     1
102
RTVSPropertyOp61
 70
     1
102
RTVSPropertyOp62
 70
     1
  0
XRECORD
  5
F7B
102
{ACAD_REACTORS
330
F7A
102
}
330
F7A
100
AcDbXrecord
280
     1
102
RTVSPost2010Prop28
280
     0
102
RTVSPost2010PropOp28
 70
     1
102
RTVSPost2010Prop29
280
     1
102
RTVSPost2010PropOp29
 70
     1
102
RTVSPost2010Prop30
280
     1
102
RTVSPost2010PropOp30
 70
     1
102
RTVSPost2010Prop31
280
     0
102
RTVSPost2010PropOp31
 70
     1
102
RTVSPost2010Prop32
280
     0
102
RTVSPost2010PropOp32
 70
     1
102
RTVSPost2010Prop33
280
     0
102
RTVSPost2010PropOp33
 70
     1
102
RTVSPost2010Prop34
280
     0
102
RTVSPost2010PropOp34
 70
     1
102
RTVSPost2010Prop35
280
     0
102
RTVSPost2010PropOp35
 70
     1
102
RTVSPost2010Prop36
280
     0
102
RTVSPost2010PropOp36
 70
     1
102
RTVSPost2010Prop37
 90
       50
102
RTVSPost2010PropOp37
 70
     1
102
RTVSPost2010Prop38
140
0.0
102
RTVSPost2010PropOp38
 70
     1
102
RTVSPost2010Prop39
140
1.0
102
RTVSPost2010PropOp39
 70
     1
102
RTVSPost2010Prop40
 90
        0
102
RTVSPost2010PropOp40
 70
     1
102
RTVSPost2010Prop41ColorIndex
 90
       18
102
RTVSPost2010Prop41ColorRGB
 90
        0
102
RTVSPost2010PropOp41
 70
     1
102
RTVSPost2010Prop42
 90
       50
102
RTVSPost2010PropOp42
 70
     1
102
RTVSPost2010Prop43
 90
        3
102
RTVSPost2010PropOp43
 70
     1
102
RTVSPost2010Prop44ColorIndex
 90
        5
102
RTVSPost2010Prop44ColorRGB
 90
      255
102
RTVSPost2010PropOp44
 70
     1
102
RTVSPost2010Prop45
280
     0
102
RTVSPost2010PropOp45
 70
     1
102
RTVSPost2010Prop46
 90
       50
102
RTVSPost2010PropOp46
 70
     1
102
RTVSPost2010Prop47
 90
       50
102
RTVSPost2010PropOp47
 70
     1
102
RTVSPost2010Prop48
 90
       50
102
RTVSPost2010PropOp48
 70
     1
102
RTVSPost2010Prop49
280
     0
102
RTVSPost2010PropOp49
 70
     1
102
RTVSPost2010Prop50
 90
       50
102
RTVSPost2010PropOp50
 70
     1
102
RTVSPost2010Prop51ColorIndex
 90
      256
102
RTVSPost2010Prop51ColorRGB
 90
-16777216
102
RTVSPost2010PropOp51
 70
     0
102
RTVSPost2010Prop52
140
1.0
102
RTVSPost2010PropOp52
 70
     0
102
RTVSPost2010Prop53
 90
        2
102
RTVSPost2010PropOp53
 70
     1
102
RTVSPost2010Prop54
  1
strokes_ogs.tif
102
RTVSPost2010PropOp54
 70
     1
102
RTVSPost2010Prop55
280
     0
102
RTVSPost2010PropOp55
 70
     1
102
RTVSPost2010Prop56
140
1.0
102
RTVSPost2010PropOp56
 70
     1
102
RTVSPost2010Prop57
140
1.0
102
RTVSPost2010PropOp57
 70
     1
102
RTVSPropertyOp0
 70
     1
102
RTVSPropertyOp1
 70
     1
102
RTVSPropertyOp2
 70
     1
102
RTVSPropertyOp3
 70
     1
102
RTVSPropertyOp4
 70
     1
102
RTVSPropertyOp5
 70
     1
102
RTVSPropertyOp6
 70
     1
102
RTVSPropertyOp7
 70
     1
102
RTVSPropertyOp8
 70
     1
102
RTVSPropertyOp9
 70
     1
102
RTVSPropertyOp10
 70
     1
102
RTVSPropertyOp11
 70
     1
102
RTVSPropertyOp12
 70
     1
102
RTVSPropertyOp13
 70
     1
102
RTVSPropertyOp14
 70
     1
102
RTVSPropertyOp15
 70
     1
102
RTVSPropertyOp16
 70
     1
102
RTVSPropertyOp17
 70
     1
102
RTVSPropertyOp18
 70
     1
102
RTVSPropertyOp19
 70
     1
102
RTVSPropertyOp20
 70
     1
102
RTVSPropertyOp21
 70
     1
102
RTVSPropertyOp22
 70
     1
102
RTVSPropertyOp23
 70
     1
102
RTVSPropertyOp24
 70
     1
102
RTVSPropertyOp25
 70
     1
102
RTVSPropertyOp26
 70
     1
102
RTVSPropertyOp27
 70
     1
102
RTVSPropertyOp28
 70
     1
102
RTVSPropertyOp29
 70
     1
102
RTVSPropertyOp30
 70
     1
102
RTVSPropertyOp31
 70
     1
102
RTVSPropertyOp32
 70
     1
102
RTVSPropertyOp33
 70
     1
102
RTVSPropertyOp34
 70
     1
102
RTVSPropertyOp35
 70
     1
102
RTVSPropertyOp36
 70
     1
102
RTVSPropertyOp37
 70
     1
102
RTVSPropertyOp38
 70
     1
102
RTVSPropertyOp39
 70
     1
102
RTVSPropertyOp40
 70
     1
102
RTVSPropertyOp41
 70
     1
102
RTVSPropertyOp42
 70
     1
102
RTVSPropertyOp43
 70
     1
102
RTVSPropertyOp44
 70
     1
102
RTVSPropertyOp45
 70
     1
102
RTVSPropertyOp46
 70
     1
102
RTVSPropertyOp47
 70
     1
102
RTVSPropertyOp48
 70
     1
102
RTVSPropertyOp49
 70
     1
102
RTVSPropertyOp50
 70
     1
102
RTVSPropertyOp51
 70
     0
102
RTVSPropertyOp52
 70
     0
102
RTVSPropertyOp53
 70
     1
102
RTVSPropertyOp54
 70
     1
102
RTVSPropertyOp55
 70
     1
102
RTVSPropertyOp56
 70
     1
102
RTVSPropertyOp57
 70
     1
102
RTVSPropertyOp58
 70
     1
102
RTVSPropertyOp59
 70
     1
102
RTVSPropertyOp60
 70
     1
102
RTVSPropertyOp61
 70
     1
102
RTVSPropertyOp62
 70
     1
  0
XRECORD
  5
F7D
102
{ACAD_REACTORS
330
F7C
102
}
330
F7C
100
AcDbXrecord
280
     1
102
RTVSPost2010Prop28
280
     0
102
RTVSPost2010PropOp28
 70
     1
102
RTVSPost2010Prop29
280
     1
102
RTVSPost2010PropOp29
 70
     1
102
RTVSPost2010Prop30
280
     1
102
RTVSPost2010PropOp30
 70
     1
102
RTVSPost2010Prop31
280
     0
102
RTVSPost2010PropOp31
 70
     1
102
RTVSPost2010Prop32
280
     0
102
RTVSPost2010PropOp32
 70
     1
102
RTVSPost2010Prop33
280
     0
102
RTVSPost2010PropOp33
 70
     1
102
RTVSPost2010Prop34
280
     0
102
RTVSPost2010PropOp34
 70
     1
102
RTVSPost2010Prop35
280
     0
102
RTVSPost2010PropOp35
 70
     1
102
RTVSPost2010Prop36
280
     0
102
RTVSPost2010PropOp36
 70
     1
102
RTVSPost2010Prop37
 90
       50
102
RTVSPost2010PropOp37
 70
     1
102
RTVSPost2010Prop38
140
0.0
102
RTVSPost2010PropOp38
 70
     1
102
RTVSPost2010Prop39
140
1.0
102
RTVSPost2010PropOp39
 70
     1
102
RTVSPost2010Prop40
 90
        0
102
RTVSPost2010PropOp40
 70
     1
102
RTVSPost2010Prop41ColorIndex
 90
       18
102
RTVSPost2010Prop41ColorRGB
 90
        0
102
RTVSPost2010PropOp41
 70
     1
102
RTVSPost2010Prop42
 90
       50
102
RTVSPost2010PropOp42
 70
     1
102
RTVSPost2010Prop43
 90
        3
102
RTVSPost2010PropOp43
 70
     1
102
RTVSPost2010Prop44ColorIndex
 90
        5
102
RTVSPost2010Prop44ColorRGB
 90
      255
102
RTVSPost2010PropOp44
 70
     1
102
RTVSPost2010Prop45
280
     0
102
RTVSPost2010PropOp45
 70
     1
102
RTVSPost2010Prop46
 90
       50
102
RTVSPost2010PropOp46
 70
     1
102
RTVSPost2010Prop47
 90
       50
102
RTVSPost2010PropOp47
 70
     1
102
RTVSPost2010Prop48
 90
       50
102
RTVSPost2010PropOp48
 70
     1
102
RTVSPost2010Prop49
280
     0
102
RTVSPost2010PropOp49
 70
     1
102
RTVSPost2010Prop50
 90
       50
102
RTVSPost2010PropOp50
 70
     1
102
RTVSPost2010Prop51ColorIndex
 90
      256
102
RTVSPost2010Prop51ColorRGB
 90
-16777216
102
RTVSPost2010PropOp51
 70
     0
102
RTVSPost2010Prop52
140
1.0
102
RTVSPost2010PropOp52
 70
     0
102
RTVSPost2010Prop53
 90
        2
102
RTVSPost2010PropOp53
 70
     1
102
RTVSPost2010Prop54
  1
strokes_ogs.tif
102
RTVSPost2010PropOp54
 70
     1
102
RTVSPost2010Prop55
280
     0
102
RTVSPost2010PropOp55
 70
     1
102
RTVSPost2010Prop56
140
1.0
102
RTVSPost2010PropOp56
 70
     1
102
RTVSPost2010Prop57
140
1.0
102
RTVSPost2010PropOp57
 70
     1
102
RTVSPropertyOp0
 70
     1
102
RTVSPropertyOp1
 70
     1
102
RTVSPropertyOp2
 70
     1
102
RTVSPropertyOp3
 70
     1
102
RTVSPropertyOp4
 70
     1
102
RTVSPropertyOp5
 70
     1
102
RTVSPropertyOp6
 70
     1
102
RTVSPropertyOp7
 70
     1
102
RTVSPropertyOp8
 70
     1
102
RTVSPropertyOp9
 70
     1
102
RTVSPropertyOp10
 70
     1
102
RTVSPropertyOp11
 70
     1
102
RTVSPropertyOp12
 70
     1
102
RTVSPropertyOp13
 70
     1
102
RTVSPropertyOp14
 70
     1
102
RTVSPropertyOp15
 70
     1
102
RTVSPropertyOp16
 70
     1
102
RTVSPropertyOp17
 70
     1
102
RTVSPropertyOp18
 70
     1
102
RTVSPropertyOp19
 70
     1
102
RTVSPropertyOp20
 70
     1
102
RTVSPropertyOp21
 70
     1
102
RTVSPropertyOp22
 70
     1
102
RTVSPropertyOp23
 70
     1
102
RTVSPropertyOp24
 70
     1
102
RTVSPropertyOp25
 70
     1
102
RTVSPropertyOp26
 70
     1
102
RTVSPropertyOp27
 70
     1
102
RTVSPropertyOp28
 70
     1
102
RTVSPropertyOp29
 70
     1
102
RTVSPropertyOp30
 70
     1
102
RTVSPropertyOp31
 70
     1
102
RTVSPropertyOp32
 70
     1
102
RTVSPropertyOp33
 70
     1
102
RTVSPropertyOp34
 70
     1
102
RTVSPropertyOp35
 70
     1
102
RTVSPropertyOp36
 70
     1
102
RTVSPropertyOp37
 70
     1
102
RTVSPropertyOp38
 70
     1
102
RTVSPropertyOp39
 70
     1
102
RTVSPropertyOp40
 70
     1
102
RTVSPropertyOp41
 70
     1
102
RTVSPropertyOp42
 70
     1
102
RTVSPropertyOp43
 70
     1
102
RTVSPropertyOp44
 70
     1
102
RTVSPropertyOp45
 70
     1
102
RTVSPropertyOp46
 70
     1
102
RTVSPropertyOp47
 70
     1
102
RTVSPropertyOp48
 70
     1
102
RTVSPropertyOp49
 70
     1
102
RTVSPropertyOp50
 70
     1
102
RTVSPropertyOp51
 70
     0
102
RTVSPropertyOp52
 70
     0
102
RTVSPropertyOp53
 70
     1
102
RTVSPropertyOp54
 70
     1
102
RTVSPropertyOp55
 70
     1
102
RTVSPropertyOp56
 70
     1
102
RTVSPropertyOp57
 70
     1
102
RTVSPropertyOp58
 70
     1
102
RTVSPropertyOp59
 70
     1
102
RTVSPropertyOp60
 70
     1
102
RTVSPropertyOp61
 70
     1
102
RTVSPropertyOp62
 70
     1
  0
XRECORD
  5
F6F
102
{ACAD_REACTORS
330
F6E
102
}
330
F6E
100
AcDbXrecord
280
     1
102
RTVSPost2010Prop28
280
     0
102
RTVSPost2010PropOp28
 70
     1
102
RTVSPost2010Prop29
280
     1
102
RTVSPost2010PropOp29
 70
     1
102
RTVSPost2010Prop30
280
     1
102
RTVSPost2010PropOp30
 70
     1
102
RTVSPost2010Prop31
280
     0
102
RTVSPost2010PropOp31
 70
     1
102
RTVSPost2010Prop32
280
     0
102
RTVSPost2010PropOp32
 70
     1
102
RTVSPost2010Prop33
280
     0
102
RTVSPost2010PropOp33
 70
     1
102
RTVSPost2010Prop34
280
     0
102
RTVSPost2010PropOp34
 70
     1
102
RTVSPost2010Prop35
280
     0
102
RTVSPost2010PropOp35
 70
     1
102
RTVSPost2010Prop36
280
     0
102
RTVSPost2010PropOp36
 70
     1
102
RTVSPost2010Prop37
 90
       50
102
RTVSPost2010PropOp37
 70
     1
102
RTVSPost2010Prop38
140
0.0
102
RTVSPost2010PropOp38
 70
     1
102
RTVSPost2010Prop39
140
1.0
102
RTVSPost2010PropOp39
 70
     1
102
RTVSPost2010Prop40
 90
        0
102
RTVSPost2010PropOp40
 70
     1
102
RTVSPost2010Prop41ColorIndex
 90
       18
102
RTVSPost2010Prop41ColorRGB
 90
        0
102
RTVSPost2010PropOp41
 70
     1
102
RTVSPost2010Prop42
 90
       50
102
RTVSPost2010PropOp42
 70
     1
102
RTVSPost2010Prop43
 90
        3
102
RTVSPost2010PropOp43
 70
     1
102
RTVSPost2010Prop44ColorIndex
 90
        5
102
RTVSPost2010Prop44ColorRGB
 90
      255
102
RTVSPost2010PropOp44
 70
     1
102
RTVSPost2010Prop45
280
     0
102
RTVSPost2010PropOp45
 70
     1
102
RTVSPost2010Prop46
 90
       50
102
RTVSPost2010PropOp46
 70
     1
102
RTVSPost2010Prop47
 90
       50
102
RTVSPost2010PropOp47
 70
     1
102
RTVSPost2010Prop48
 90
       50
102
RTVSPost2010PropOp48
 70
     1
102
RTVSPost2010Prop49
280
     0
102
RTVSPost2010PropOp49
 70
     1
102
RTVSPost2010Prop50
 90
       50
102
RTVSPost2010PropOp50
 70
     1
102
RTVSPost2010Prop51ColorIndex
 90
      256
102
RTVSPost2010Prop51ColorRGB
 90
-16777216
102
RTVSPost2010PropOp51
 70
     0
102
RTVSPost2010Prop52
140
1.0
102
RTVSPost2010PropOp52
 70
     0
102
RTVSPost2010Prop53
 90
        2
102
RTVSPost2010PropOp53
 70
     1
102
RTVSPost2010Prop54
  1
strokes_ogs.tif
102
RTVSPost2010PropOp54
 70
     1
102
RTVSPost2010Prop55
280
     0
102
RTVSPost2010PropOp55
 70
     1
102
RTVSPost2010Prop56
140
1.0
102
RTVSPost2010PropOp56
 70
     1
102
RTVSPost2010Prop57
140
1.0
102
RTVSPost2010PropOp57
 70
     1
102
RTVSPropertyOp0
 70
     1
102
RTVSPropertyOp1
 70
     1
102
RTVSPropertyOp2
 70
     1
102
RTVSPropertyOp3
 70
     1
102
RTVSPropertyOp4
 70
     1
102
RTVSPropertyOp5
 70
     1
102
RTVSPropertyOp6
 70
     1
102
RTVSPropertyOp7
 70
     1
102
RTVSPropertyOp8
 70
     1
102
RTVSPropertyOp9
 70
     1
102
RTVSPropertyOp10
 70
     1
102
RTVSPropertyOp11
 70
     1
102
RTVSPropertyOp12
 70
     1
102
RTVSPropertyOp13
 70
     1
102
RTVSPropertyOp14
 70
     1
102
RTVSPropertyOp15
 70
     1
102
RTVSPropertyOp16
 70
     1
102
RTVSPropertyOp17
 70
     1
102
RTVSPropertyOp18
 70
     1
102
RTVSPropertyOp19
 70
     1
102
RTVSPropertyOp20
 70
     1
102
RTVSPropertyOp21
 70
     1
102
RTVSPropertyOp22
 70
     1
102
RTVSPropertyOp23
 70
     1
102
RTVSPropertyOp24
 70
     1
102
RTVSPropertyOp25
 70
     1
102
RTVSPropertyOp26
 70
     1
102
RTVSPropertyOp27
 70
     1
102
RTVSPropertyOp28
 70
     1
102
RTVSPropertyOp29
 70
     1
102
RTVSPropertyOp30
 70
     1
102
RTVSPropertyOp31
 70
     1
102
RTVSPropertyOp32
 70
     1
102
RTVSPropertyOp33
 70
     1
102
RTVSPropertyOp34
 70
     1
102
RTVSPropertyOp35
 70
     1
102
RTVSPropertyOp36
 70
     1
102
RTVSPropertyOp37
 70
     1
102
RTVSPropertyOp38
 70
     1
102
RTVSPropertyOp39
 70
     1
102
RTVSPropertyOp40
 70
     1
102
RTVSPropertyOp41
 70
     1
102
RTVSPropertyOp42
 70
     1
102
RTVSPropertyOp43
 70
     1
102
RTVSPropertyOp44
 70
     1
102
RTVSPropertyOp45
 70
     1
102
RTVSPropertyOp46
 70
     1
102
RTVSPropertyOp47
 70
     1
102
RTVSPropertyOp48
 70
     1
102
RTVSPropertyOp49
 70
     1
102
RTVSPropertyOp50
 70
     1
102
RTVSPropertyOp51
 70
     0
102
RTVSPropertyOp52
 70
     0
102
RTVSPropertyOp53
 70
     1
102
RTVSPropertyOp54
 70
     1
102
RTVSPropertyOp55
 70
     1
102
RTVSPropertyOp56
 70
     1
102
RTVSPropertyOp57
 70
     1
102
RTVSPropertyOp58
 70
     1
102
RTVSPropertyOp59
 70
     1
102
RTVSPropertyOp60
 70
     1
102
RTVSPropertyOp61
 70
     1
102
RTVSPropertyOp62
 70
     1
  0
XRECORD
  5
F77
102
{ACAD_REACTORS
330
F76
102
}
330
F76
100
AcDbXrecord
280
     1
102
RTVSPost2010Prop28
280
     0
102
RTVSPost2010PropOp28
 70
     1
102
RTVSPost2010Prop29
280
     1
102
RTVSPost2010PropOp29
 70
     1
102
RTVSPost2010Prop30
280
     1
102
RTVSPost2010PropOp30
 70
     1
102
RTVSPost2010Prop31
280
     0
102
RTVSPost2010PropOp31
 70
     1
102
RTVSPost2010Prop32
280
     0
102
RTVSPost2010PropOp32
 70
     1
102
RTVSPost2010Prop33
280
     0
102
RTVSPost2010PropOp33
 70
     1
102
RTVSPost2010Prop34
280
     0
102
RTVSPost2010PropOp34
 70
     1
102
RTVSPost2010Prop35
280
     0
102
RTVSPost2010PropOp35
 70
     1
102
RTVSPost2010Prop36
280
     0
102
RTVSPost2010PropOp36
 70
     1
102
RTVSPost2010Prop37
 90
       50
102
RTVSPost2010PropOp37
 70
     1
102
RTVSPost2010Prop38
140
0.0
102
RTVSPost2010PropOp38
 70
     1
102
RTVSPost2010Prop39
140
1.0
102
RTVSPost2010PropOp39
 70
     1
102
RTVSPost2010Prop40
 90
        0
102
RTVSPost2010PropOp40
 70
     1
102
RTVSPost2010Prop41ColorIndex
 90
       18
102
RTVSPost2010Prop41ColorRGB
 90
        0
102
RTVSPost2010PropOp41
 70
     1
102
RTVSPost2010Prop42
 90
       50
102
RTVSPost2010PropOp42
 70
     1
102
RTVSPost2010Prop43
 90
        3
102
RTVSPost2010PropOp43
 70
     1
102
RTVSPost2010Prop44ColorIndex
 90
        5
102
RTVSPost2010Prop44ColorRGB
 90
      255
102
RTVSPost2010PropOp44
 70
     1
102
RTVSPost2010Prop45
280
     0
102
RTVSPost2010PropOp45
 70
     1
102
RTVSPost2010Prop46
 90
       50
102
RTVSPost2010PropOp46
 70
     1
102
RTVSPost2010Prop47
 90
       50
102
RTVSPost2010PropOp47
 70
     1
102
RTVSPost2010Prop48
 90
       50
102
RTVSPost2010PropOp48
 70
     1
102
RTVSPost2010Prop49
280
     0
102
RTVSPost2010PropOp49
 70
     1
102
RTVSPost2010Prop50
 90
       50
102
RTVSPost2010PropOp50
 70
     1
102
RTVSPost2010Prop51ColorIndex
 90
      256
102
RTVSPost2010Prop51ColorRGB
 90
-16777216
102
RTVSPost2010PropOp51
 70
     0
102
RTVSPost2010Prop52
140
1.0
102
RTVSPost2010PropOp52
 70
     0
102
RTVSPost2010Prop53
 90
        2
102
RTVSPost2010PropOp53
 70
     1
102
RTVSPost2010Prop54
  1
strokes_ogs.tif
102
RTVSPost2010PropOp54
 70
     1
102
RTVSPost2010Prop55
280
     0
102
RTVSPost2010PropOp55
 70
     1
102
RTVSPost2010Prop56
140
1.0
102
RTVSPost2010PropOp56
 70
     1
102
RTVSPost2010Prop57
140
1.0
102
RTVSPost2010PropOp57
 70
     1
102
RTVSPropertyOp0
 70
     1
102
RTVSPropertyOp1
 70
     1
102
RTVSPropertyOp2
 70
     1
102
RTVSPropertyOp3
 70
     1
102
RTVSPropertyOp4
 70
     1
102
RTVSPropertyOp5
 70
     1
102
RTVSPropertyOp6
 70
     1
102
RTVSPropertyOp7
 70
     1
102
RTVSPropertyOp8
 70
     1
102
RTVSPropertyOp9
 70
     1
102
RTVSPropertyOp10
 70
     1
102
RTVSPropertyOp11
 70
     1
102
RTVSPropertyOp12
 70
     1
102
RTVSPropertyOp13
 70
     1
102
RTVSPropertyOp14
 70
     1
102
RTVSPropertyOp15
 70
     1
102
RTVSPropertyOp16
 70
     1
102
RTVSPropertyOp17
 70
     1
102
RTVSPropertyOp18
 70
     1
102
RTVSPropertyOp19
 70
     1
102
RTVSPropertyOp20
 70
     1
102
RTVSPropertyOp21
 70
     1
102
RTVSPropertyOp22
 70
     1
102
RTVSPropertyOp23
 70
     1
102
RTVSPropertyOp24
 70
     1
102
RTVSPropertyOp25
 70
     1
102
RTVSPropertyOp26
 70
     1
102
RTVSPropertyOp27
 70
     1
102
RTVSPropertyOp28
 70
     1
102
RTVSPropertyOp29
 70
     1
102
RTVSPropertyOp30
 70
     1
102
RTVSPropertyOp31
 70
     1
102
RTVSPropertyOp32
 70
     1
102
RTVSPropertyOp33
 70
     1
102
RTVSPropertyOp34
 70
     1
102
RTVSPropertyOp35
 70
     1
102
RTVSPropertyOp36
 70
     1
102
RTVSPropertyOp37
 70
     1
102
RTVSPropertyOp38
 70
     1
102
RTVSPropertyOp39
 70
     1
102
RTVSPropertyOp40
 70
     1
102
RTVSPropertyOp41
 70
     1
102
RTVSPropertyOp42
 70
     1
102
RTVSPropertyOp43
 70
     1
102
RTVSPropertyOp44
 70
     1
102
RTVSPropertyOp45
 70
     1
102
RTVSPropertyOp46
 70
     1
102
RTVSPropertyOp47
 70
     1
102
RTVSPropertyOp48
 70
     1
102
RTVSPropertyOp49
 70
     1
102
RTVSPropertyOp50
 70
     1
102
RTVSPropertyOp51
 70
     0
102
RTVSPropertyOp52
 70
     0
102
RTVSPropertyOp53
 70
     1
102
RTVSPropertyOp54
 70
     1
102
RTVSPropertyOp55
 70
     1
102
RTVSPropertyOp56
 70
     1
102
RTVSPropertyOp57
 70
     1
102
RTVSPropertyOp58
 70
     1
102
RTVSPropertyOp59
 70
     1
102
RTVSPropertyOp60
 70
     1
102
RTVSPropertyOp61
 70
     1
102
RTVSPropertyOp62
 70
     1
  0
XRECORD
  5
F7F
102
{ACAD_REACTORS
330
F7E
102
}
330
F7E
100
AcDbXrecord
280
     1
102
RTVSPost2010Prop28
280
     0
102
RTVSPost2010PropOp28
 70
     1
102
RTVSPost2010Prop29
280
     1
102
RTVSPost2010PropOp29
 70
     1
102
RTVSPost2010Prop30
280
     1
102
RTVSPost2010PropOp30
 70
     1
102
RTVSPost2010Prop31
280
     0
102
RTVSPost2010PropOp31
 70
     1
102
RTVSPost2010Prop32
280
     0
102
RTVSPost2010PropOp32
 70
     1
102
RTVSPost2010Prop33
280
     0
102
RTVSPost2010PropOp33
 70
     1
102
RTVSPost2010Prop34
280
     0
102
RTVSPost2010PropOp34
 70
     1
102
RTVSPost2010Prop35
280
     0
102
RTVSPost2010PropOp35
 70
     1
102
RTVSPost2010Prop36
280
     0
102
RTVSPost2010PropOp36
 70
     1
102
RTVSPost2010Prop37
 90
       50
102
RTVSPost2010PropOp37
 70
     1
102
RTVSPost2010Prop38
140
0.0
102
RTVSPost2010PropOp38
 70
     1
102
RTVSPost2010Prop39
140
1.0
102
RTVSPost2010PropOp39
 70
     1
102
RTVSPost2010Prop40
 90
        0
102
RTVSPost2010PropOp40
 70
     1
102
RTVSPost2010Prop41ColorIndex
 90
       18
102
RTVSPost2010Prop41ColorRGB
 90
        0
102
RTVSPost2010PropOp41
 70
     1
102
RTVSPost2010Prop42
 90
       50
102
RTVSPost2010PropOp42
 70
     1
102
RTVSPost2010Prop43
 90
        3
102
RTVSPost2010PropOp43
 70
     1
102
RTVSPost2010Prop44ColorIndex
 90
        5
102
RTVSPost2010Prop44ColorRGB
 90
      255
102
RTVSPost2010PropOp44
 70
     1
102
RTVSPost2010Prop45
280
     0
102
RTVSPost2010PropOp45
 70
     1
102
RTVSPost2010Prop46
 90
       50
102
RTVSPost2010PropOp46
 70
     1
102
RTVSPost2010Prop47
 90
       50
102
RTVSPost2010PropOp47
 70
     1
102
RTVSPost2010Prop48
 90
       50
102
RTVSPost2010PropOp48
 70
     1
102
RTVSPost2010Prop49
280
     0
102
RTVSPost2010PropOp49
 70
     1
102
RTVSPost2010Prop50
 90
       50
102
RTVSPost2010PropOp50
 70
     1
102
RTVSPost2010Prop51ColorIndex
 90
      256
102
RTVSPost2010Prop51ColorRGB
 90
-16777216
102
RTVSPost2010PropOp51
 70
     0
102
RTVSPost2010Prop52
140
1.0
102
RTVSPost2010PropOp52
 70
     0
102
RTVSPost2010Prop53
 90
        2
102
RTVSPost2010PropOp53
 70
     1
102
RTVSPost2010Prop54
  1
strokes_ogs.tif
102
RTVSPost2010PropOp54
 70
     1
102
RTVSPost2010Prop55
280
     0
102
RTVSPost2010PropOp55
 70
     1
102
RTVSPost2010Prop56
140
1.0
102
RTVSPost2010PropOp56
 70
     1
102
RTVSPost2010Prop57
140
1.0
102
RTVSPost2010PropOp57
 70
     1
102
RTVSPropertyOp0
 70
     1
102
RTVSPropertyOp1
 70
     1
102
RTVSPropertyOp2
 70
     1
102
RTVSPropertyOp3
 70
     1
102
RTVSPropertyOp4
 70
     1
102
RTVSPropertyOp5
 70
     1
102
RTVSPropertyOp6
 70
     1
102
RTVSPropertyOp7
 70
     1
102
RTVSPropertyOp8
 70
     1
102
RTVSPropertyOp9
 70
     1
102
RTVSPropertyOp10
 70
     1
102
RTVSPropertyOp11
 70
     1
102
RTVSPropertyOp12
 70
     1
102
RTVSPropertyOp13
 70
     1
102
RTVSPropertyOp14
 70
     1
102
RTVSPropertyOp15
 70
     1
102
RTVSPropertyOp16
 70
     1
102
RTVSPropertyOp17
 70
     1
102
RTVSPropertyOp18
 70
     1
102
RTVSPropertyOp19
 70
     1
102
RTVSPropertyOp20
 70
     1
102
RTVSPropertyOp21
 70
     1
102
RTVSPropertyOp22
 70
     1
102
RTVSPropertyOp23
 70
     1
102
RTVSPropertyOp24
 70
     1
102
RTVSPropertyOp25
 70
     1
102
RTVSPropertyOp26
 70
     1
102
RTVSPropertyOp27
 70
     1
102
RTVSPropertyOp28
 70
     1
102
RTVSPropertyOp29
 70
     1
102
RTVSPropertyOp30
 70
     1
102
RTVSPropertyOp31
 70
     1
102
RTVSPropertyOp32
 70
     1
102
RTVSPropertyOp33
 70
     1
102
RTVSPropertyOp34
 70
     1
102
RTVSPropertyOp35
 70
     1
102
RTVSPropertyOp36
 70
     1
102
RTVSPropertyOp37
 70
     1
102
RTVSPropertyOp38
 70
     1
102
RTVSPropertyOp39
 70
     1
102
RTVSPropertyOp40
 70
     1
102
RTVSPropertyOp41
 70
     1
102
RTVSPropertyOp42
 70
     1
102
RTVSPropertyOp43
 70
     1
102
RTVSPropertyOp44
 70
     1
102
RTVSPropertyOp45
 70
     1
102
RTVSPropertyOp46
 70
     1
102
RTVSPropertyOp47
 70
     1
102
RTVSPropertyOp48
 70
     1
102
RTVSPropertyOp49
 70
     1
102
RTVSPropertyOp50
 70
     1
102
RTVSPropertyOp51
 70
     0
102
RTVSPropertyOp52
 70
     0
102
RTVSPropertyOp53
 70
     1
102
RTVSPropertyOp54
 70
     1
102
RTVSPropertyOp55
 70
     1
102
RTVSPropertyOp56
 70
     1
102
RTVSPropertyOp57
 70
     1
102
RTVSPropertyOp58
 70
     1
102
RTVSPropertyOp59
 70
     1
102
RTVSPropertyOp60
 70
     1
102
RTVSPropertyOp61
 70
     1
102
RTVSPropertyOp62
 70
     1
  0
ENDSEC
  0
EOF
